» » »

U2, Sweetest Thing Bass tabs (ver.1)

Artists:  A B C D E F G H I J K L M N O P Q R S T U V W X Y Z # 

Sweetest Thing Bass tabs (ver.1)

U2 Tabs
 Rating:
4/5 (4 votes)
Sweetest Thing lessons Tabs too difficult? Try these video lessons and learn fast
1
                U2 - The Sweetest Thing 
Bass Tabs

Opening:
D------------------3--
A-12\0-3-3-3-3-3-0---3
E---------------------

verse 1 (x10)
D-----------------3--
A---0/3-3-3-3-3-0---3
E-4------------------

Chorus:
D-----------------------------------------
A-5-5-5-5-3-3-3-3-10-10-10-10-10-10-10-10-

D-12-12-12-12-10-10-10-10--------------------------
A-------------------------10-10-10-10-10-10-10/12\0


Verse 2:
D-------------3--
A-3-3-3-3-3-0---3   (x2)

G-5--------------
D-------------3--
A---3-3-3-3-0---3

D-------------3--
A-3-3-3-3-3-0---3   (x5)

(Chorus)


Verse 3:
G---------------------------------------
D-------------3--------------------3----
A-0-3-3-3-3-0---3--------3-3-3-3-3---3-3  (x2)
E---------------------------------------

G-----------------------5--------------------5--------------
D-------------3---------------------3--------------------3--
A-3-3-3-3-3-0---3---------3-3-3-3-0---3--------3-3-3-3-0---3
E-----------------------------------------------------------

G--------------------------------------------------------------
D-----------------3------------------0/3------------------0/3--
A---0/3-3-3-3-3-0---3------3-3-3-3-3-----3------3-3-3-3-3-----3
E-4------------------------------------------------------------

G----------------------------------------------------------------------
D---------------3--------------------------3----------------------3----
A---0/3-3-3-3-3---3-3--------0/3-3-3-3-3-0---3--------0/3-3-3-3-3---3-3
E-4------------------------4------------------------4------------------

G---------------------------------------------------5----------------
D---------------3--------------------------3----------------------3--
A---0/3-3-3-3-3---3-3--------0/3-3-3-3-3-0---3--------3-3-3-3-3-0---3
E-4------------------------4-----------------------------------------

G--------------------------------------------------------------
D---------------3----------------------3--------------------3--
A---0/3-3-3-3-3---3-3------3-3-3-3-3-0---3------3-3-3-3-3-0---3
E-4------------------------------------------------------------

G-----------------------------------------------------------------
D-----------3----------------------3--------------------3---------
A-3-3-3-3-3---3-3------3-3-3-3-3-0---3------3-3-3-3-3-0---3------3
E-----------------------------------------------------------------

Questions, comments, corrections, etc.
            
Submit corrections

comments powered by Disqus
↑ Back to top | U2 Bass for Sweetest Thing. Lyrics for acoustic guitar and electric guitar. 1 Tablatures and chords are parodies/interpretations of the original songs. You may use it for private study, scholarship, research or language learning purposes only