>
 >
 >
Stay Faraway So Close Live

Stay Faraway So Close Live Guitar Tabs

U2 - Stay Faraway So Close Live chords, tabs, tablatures, lyrics

Guitar lessons | Add/correct | Request | Top 50 tabs Artists:  A B C D E F G H I J K L M N O P Q R S T U V W X Y Z 0-9

Stay Faraway So Close Live Guitar Tabs – U2

CD, Sheet music, Poster

Do you like Stay Faraway So Close Live? Share with your friends now
Tabs
Tuning: EADGCF (1st & 2nd string one semitone up)

For original key, tune 2 steps down.


Fig 1

Green light, ....

*-----------0-----------------0-----------------0-----------------0----------|
*---------------0---------------0-------------------------------------0------|
*---------2-------2---------4-----4-----------7-----7-----------2-------2----|
*-------3-----------------5---------5-------8---------8-------3--------------|
*----------------------------------------------------------------------------|
*-----1-----------------3-----------------6-----------------1----------------|

Play 3 times


Fig 2

You say when ...

*-----------0-----------------0-----------------0-----------------------------|
*---------0-----0-----------0---0---------------------------------------------|
*-------3---------3-------3-------3-----------2-------2h3p2h3p2------------2--|
*------3------------3----3----------3-------3-------3-----------3--------3----|
*-----------------------------------------------------------------3-----------|
*----3-----------------3------------------1-------------------------1---------|

                                                   h = hammer on, p = pull off

Because when he hurts you, you feel alive.

*-----------0---------------0--------------------0----------------------------|
*---------0-----0-------------0---------------------0-------------------------|
*-------3---------3-------3-----3-------------2-------2-----------------------|
*------3------------3----3--------3---------3---------------------------------|
*-----------------------------------1-----------------------------------------|
*----3-----------------3-----------------1------------------------------------|


Oh now. Is that what it is?

*-----------0-----------------0-----------------0----------|
*-------------0------------------------------------0-------|
*---------4-----4-----------7-----7-----------2-------2----|
*-------5---------5-------8---------8-------3--------------|
*----------------------------------------------------------|
*-----3-----------------6-----------------1----------------|


Fig 3

Red light, grey morning…

Strum

*-----0-----------------0-----------------0-----------------0-------|
*-----0-----------------0-----------------0-----------------0-------|
*-----2-----------------4-----------------7-----------------2-------|
*-----3-----------------5-----------------8-----------------3-------|
*-----3-----------------5-----------------8-----------------3-------|
*-----1-----------------3-----------------6-----------------1-------|


Fig 4

And if you look...                  And if you talk...

*------------0-----------0----------------0-------------0-----------0-------|
*--------------0-----------0----------------0---------0---0-------0---0-----|
*----------3-----3-----3-----3----------------------------------------------|
*--------3-----------3---------3--------7-----7-----7-------7---7-------7---|
*-------------------------------------8---------8---------------------------|
*----1-3-----------3-------------1--5-------------5-----------5-----------5-|


And when I touch you                    You ..

*---------0-----------------0---------------0---------0-------0---------------|
*-----------0-----------------------------------0---0---0---0---0---0---------|
*-------7-----7-----------7-----7---------9-------9-------9-------9-----------|
*-----8---------8-------8---------8-----10------------------------------------|
*-----------------------------------------------------------------------------|
*---6-----------------6---------------8---------------------------------------|


Fig 5

If I could stay…

*---------0-----------------0-----------------0------------------------0-----|
*-----------0-------------0---0------------------------------------------0---|
*-------3-----3----------3-------3----------2-------2h3p2h3p2----------------|
*------3--------3------------------3-------3------3------------3-------------|
*-----------------1------------------1---------------------------3---3-------|
*----3----------------3------------------1-------------------------1---------|

Play 2 times

Stay, ...

*-----------0-----------------0-----------------0------------------|
*---------0-----0---------------0-------------------0--------------|
*-------3---------3---------7-----7-----------2---------2h3p2h3p2--|
*-------------------3-----8---------8-------3----------------------|
*-------------------------------------8----------------------------|
*----3------------------6-----------------1------------------------|

Faraway, so close...
Repeat Fig 1, quietly

And if you listen, I can’t call...
Repeat Fig 4

If I could stay...
Repeat Fig 5 two times


Stay, ....

*---------0-------------------0------------------0------------------0----------|
*-----------0--------------------0-----------------0---------------------------|
*-------3-----3-------------------------------7------7----------9-----9--------|
*------3--------3---------7--------7--------8----------8-----10--------10------|
*-----------------------8------------8-----------------------------------10----|
*----3------------3---5----------------5--6--------------6--8---------------8--|

Stay, ...

*-----------0-----------------0-----------------0-------------------------|
*---------0-----0---------------------------------------------------------|
*-------3---------3---------7-----7-----------2---------2h3p2h3p2---------|
*-------------------3-----8---------8-------3----------------------3------|
*-------------------------------------8---------------3--------------3----|
*-----3-----------------6-----------------1----------------------------1--|


Fig 7

Ohhh ohhh ohhh ohhh…

Strum

*-----0-----------------0-----------------0-----------------0-------|
*-----0-----------------0-----------------0-----------------0-------|
*-----2-----------------4-----------------7-----------------2-------|
*-----3-----------------5-----------------8-----------------3-------|
*-----3-----------------5-----------------8-----------------3-------|
*-----1-----------------3-----------------6-----------------1-------|





Comments


Popular U2 tabs & chords
In A Little While Bass Tabs
Please Bass Tabs
The Saints Are Coming Bass Tabs
Joshua Tree Chords
Sometimes You Cant Make It On Your Own 1 Chords
The Ground Beneath Her Feet 1 Chords
Helter Skelter 1 Tabs
Like A Song.. 1 Tabs
Dancing Barefoot Ukulele
Grace Ukulele


Song lyrics



↑ Back to top | Tablatures and chords are parodies/interpretations of the original songs. You may use it for private study, scholarship, research or language learning purposes only
© 2014 AZChords.com Contact us | Privacy policy | DMCA | Add/correct tabs | Request tabs | Top 50 tabs