» » »

U2, One Tabs (ver.3)

Artists:  A B C D E F G H I J K L M N O P Q R S T U V W X Y Z # 

One Tabs (ver.3)

U2 Tabs
 Rating:
4/5 (4 votes)
One lessons Tabs too difficult? Try these video lessons and learn fast
1
                (Live)
ONE 

Music by U2 - Lyrics by Bono and The Edge

(LIVE VERSION VERSION FROM POPMART TOUR - 1997)



Tune down your guitar 1/2 step.

1--------------------------------------------------0-------0---------------------------
2------5-------5-----------------------------------1-3p1h3p1---3p1-------3-------------
3-------7p5h7---7h5--------------------------------2---------------------4-4h5p4h5-4--- x4
4---------------------------12-10--h12p10h12----3--------------------3/5-------------5-
5---------------------------12-10--h12p10h12-------------------------------------------
6--3\5----------------8\10-------------------------------------------------------------

1--------------------------------------------------0-------0---------------------------
2------5-------5-----------------------------------1-3p1h3p1---3p1-------3-------------
3-------7p5h7---7h5--------------------------------2---------------------4-4h5p4h5-4--- x2
4---------------------------12-10--h12p10h12----3--------------------3/5-------------5-
5---------------------------12-10--h12p10h12-------------------------------------------
6--3\5----------------8\10-------------------------------------------------------------

Is it getting better
Or do you feel the same?
Will it make it easier on you now
You got someone to blame... you say

1----0-------0----0-------0----0-------0----0-------0-
2----1-3p1h3p1----1-3p1h3p1----1-3p1h3p1----1-3p1h3p1-
3-----------------------------------------------------
4----------------------------3------------------------ x2
5-3-------------0-------------------------3-----------
6-----------------------------------------------------

One love
One life
When it's one need
In the night
It's one love
We get to share it
It leaves you baby
If you don't care for it

1-------------------------------------------------------------------
2------7------------------------------------------------------------
3------7-5-x-5------11-11-x-11-------2-2-x-2-------4-4-x-4----------
4------7-7-x-7------12-12-x-12-------3-3-x-3-------5-5-x-5----------
5------5-7-x-7------12-12-x-12-------3-3-x-3-------5-5-x-5------3h5-
6--5-5-5-5-x-5--\10-10-10-x-10--/1-1-1-1-x-1--\3-3-3-3-x-3--3h5-----

Did I disappoint you?
Or leave a bad taste in your mouth?
You act like you never had love
And you want me to go without ...well it's

1---------0-----------0--------1---------0-
2------1-----------1--------1---------1----
3------------------------------------------
4------------------------3----------------- x2
5--3-3------3-2-0-----------------3-3------
6------------------------------------------

Too late
Tonight
To drag the past out
Into the light
We're one
But we're not the same
We get to carry each other
Carry each other

1--------------------------
2-8--8--8--8---------------
3---9--9--9--9--11--10--12-
4--------------------------
5--------------------------
6--------------------------

One

1-------------------------------------------------------------------
2------7------------------------------------------------------------
3------7-5-x-5------11-11-x-11-------2-2-x-2-------4-4-x-4----------
4------7-7-x-7------12-12-x-12-------3-3-x-3-------5-5-x-5----------
5------5-7-x-7------12-12-x-12-------3-3-x-3-------5-5-x-5------3h5-
6--5-5-5-5-x-5--\10-10-10-x-10--/1-1-1-1-x-1--\3-3-3-3-x-3--3h5-----

Have you come here for forgiveness?
Have you come here to raise the dead?
Have you come here to play Jesus
To the lepers in your head?

1---------0-----------0--------1---------0-
2------1-----------1--------1---------1----
3------------------------------------------
4------------------------3----------------- x2
5--3-3------3-2-0-----------------3-3------
6------------------------------------------

Did I ask too much?
More than a lot?
You gave me nothing
Now it's all I got
We're one
But we're not the same
We hurt each other
Then we do it again

1---------0-----------0---------0---------0-----------0-
2------1-----------1---------1---------1-----------1----
3-------------------------------------------------------
4-------------------------------------------------------
5--3-3------3-2-0------0-2-3-----3-2-0-------0-2-3------
6-------------------------------------------------------

You say
Love is a temple
Love a higher law
Love is a temple
Love the higher law
You ask me to enter

1------3------------3---------------3------------3-------
2--------------------------------------------------------
3--2\4---4-5-4---4----4-5-4-----------2-3-2---2----2-3-2-
4--------------5---------------2\3----------3------------
5--------------------------------------------------------
6--------------------------------------------------------

But then you make me crawl
And I can't be holding on
To what you got
When all you got is hurt

1-12-12-12-12-12-12-12-12-12-13-12-
2-13-13-13-13-13-13-13-13-13-13-13-
3-12-13-13-13-13-12-12-12-12-12-12-
4---------------------------------- repeat several times
5----------------------------------
6----------------------------------

One love
One blood
One life
You got to do what you should
One life
With each other
Sisters
Brothers
One life
But we're not the same
We get to carry each other
Carry each other
One


SOLO:

1-------------------------------------------------------------------------
2--13--15--17--15--13--15--17--15--13--15--17--15--13--15--17--18--17-15--
3------------------------------------------------------------------------- x2
4-------------------------------------------------------------------------
5-------------------------------------------------------------------------
6-------------------------------------------------------------------------


1--------15-------15-------15--15-------15-------15--15-------15-------------------15-------
2--17-18----12-13----12h13--------12-13----12h13--------12-13----13-12-------12-13----13-12-
3----------------------------------------------------------------------14-12----------------
4------------------------------------------------------------------------------------------- x2
5-------------------------------------------------------------------------------------------
6-------------------------------------------------------------------------------------------

1-------------------------------------------------------------------------
2--13--15--17--15--13--15--17--15--13--15--17--15--13--15--17--18--17-15--
3------------------------------------------------------------------------- 
4-------------------------------------------------------------------------
5-------------------------------------------------------------------------
6-------------------------------------------------------------------------

1---------------------------------------------------------------------
2--13--15--17--15--13--15--17--15--13--15--17--15--15--13--13--15--13-
3--------------------------------------------------------------------- 
4---------------------------------------------------------------------
5---------------------------------------------------------------------
6---------------------------------------------------------------------
            
Submit corrections

comments powered by Disqus
↑ Back to top | U2 Tabs for One. Lyrics for acoustic guitar and electric guitar. 1 Tablatures and chords are parodies/interpretations of the original songs. You may use it for private study, scholarship, research or language learning purposes only