>
 >
 >
Mofo

Mofo Guitar Tabs

U2 - Mofo chords, tabs, tablatures, lyrics

Guitar lessons | Add/correct | Request | Top 50 tabs Artists:  A B C D E F G H I J K L M N O P Q R S T U V W X Y Z 0-9

Mofo Guitar Tabs – U2

CD, Sheet music, Poster

Do you like Mofo? Share with your friends now
Bass TabsTabs
MOFO 

Music by U2 - Lyrics by Bono and The Edge

(LIVE VERSION FROM POPMART TOUR - 1997)



[Tune down your guitar 1/2 step.]

SYNTHESIZER RIFF:

e----------------------------------------------------------------------
B----------------------------------------------------------------------
G----------------------------------------------------------------------
D----------------------------------------------------------------------
A---7p0-0-0-0-0-0-0--3p0-0-0-0-0-0-0--3p0-0-0-0-0-0-0--0-3-3-4-5-6-7-7-
E----------------------------------------------------------------------

INTRO [sliding up and down on the fretboard and with wah wah]:

e---x-x-x--x--x-x-x----------
B---x-x-x--x--x-x-x----------
G---x-x-x--x--x-x-x----------
D---x-x-x--x--x-x-x----------
A---x-x-x--x--x-x-x----------
E---x-x-x--x--x-x-x----------

[In this part Edge uses a Whammy pedal, but it's possible to play it 
with a slide]:

e--3/15\2/-----------x-x-x--x--x-x-x----------
B--------------------x-x-x--x--x-x-x----------
G--------------------x-x-x--x--x-x-x----------
D--------------------x-x-x--x--x-x-x----------
A--------------------x-x-x--x--x-x-x----------
E--------------------x-x-x--x--x-x-x----------

e--3/15\2/--------
B-----------------
G-----------------
D-----------------
A-----------------
E-----------------

Looking for to save my, save my soul

e--------------------x-x-x--x--x-x-x----------
B--------------------x-x-x--x--x-x-x----------
G--------------------x-x-x--x--x-x-x----------
D--------------------x-x-x--x--x-x-x----------
A--------------------x-x-x--x--x-x-x----------
E--------------------x-x-x--x--x-x-x----------

Lookin' for the places where no flowers grow
Lookin' for to fill that GOD shaped hole

e---------------------------------
B---------------------------------
G---------------------------------  x2
D------0--------------------------
A--0-3------3--3-0-0-3-0-3-0-0----
E-------0-3-----------------------

Mother mother sucking rock and roll
Mother mother sucking rock and roll

e--------------------x-x-x--x--x-x-x----------
B--------------------x-x-x--x--x-x-x----------
G--------------------x-x-x--x--x-x-x----------
D--------------------x-x-x--x--x-x-x----------
A--------------------x-x-x--x--x-x-x----------
E--------------------x-x-x--x--x-x-x----------

Holy dunc, spacejunk comin'in for the spash
(been around the back...been around the front)
White dopes on punk staring into the flash
Lookin' for baby Jesus under the trash

e---------------------------------
B---------------------------------
G---------------------------------  x2
D------0--------------------------
A--0-3------3--3-0-0-3-0-3-0-0----
E-------0-3-----------------------

Mother mother sucking rock and roll
Mother mother sucking rock and roll

e--3/15\2/15\-----
B-----------------
G-----------------
D-----------------
A-----------------
E-----------------


e---10---10---10---10/12-12-----7--7-7
B-8----8----8----8------------8--8-8-8
G-------------------------------------
D-------------------------------------
A-------------------------------------
E-------------------------------------


e---10---10---10---10---8--8--8--8----
B-8----8----8----8----6--6--6--6------
G-------------------------------------
D-------------------------------------
A-------------------------------------
E-------------------------------------

Mother,               am I still your son?

e---6---6---6---6---6--6--6--6---8----
B-4---4---4---4---4--4--4--4---6------
G-------------------------------------
D-------------------------------------
A-------------------------------------
E-------------------------------------

You know I've waited so long to hear you say so

e---10------10---10---10---8--8--8--8----
B-8-------8----8----8----6--6--6--6------
G-----8-7--------------------------------
D----------------------------------------
A----------------------------------------
E----------------------------------------

Mother,             you left and made me someone

e---6---6---6---6---6--6--6--6---8----
B-4---4---4---4---4--4--4--4---6------
G-------------------------------------
D-------------------------------------
A-------------------------------------
E-------------------------------------

Now I'm still a child, but no one tells me "no"

e---10-----15/3--15/3--15/3(slow)
B-8------------------------
G-----8-7------------------
D--------------------------
A--------------------------
E--------------------------

e---10---10---10---10/12-12-----7--7-7
B-8----8----8----8------------8--8-8-8
G-------------------------------------
D-------------------------------------
A-------------------------------------
E-------------------------------------

e---10---10---10---10---8--8--8--8----
B-8----8----8----8----6--6--6--6------
G-------------------------------------
D-------------------------------------
A-------------------------------------
E-------------------------------------

Woo me sister        Move me brother 

e---6---6---6---6---3--3--3--3-----3--3--3--3--
B-4---4---4---4---4--4--4--4-----3--3--3--3----
G----------------------------------------------
D----------------------------------------------
A----------------------------------------------
E----------------------------------------------

Soothe me mother  Rule me father Show me mother

e---10---10---10---10/12-12-----7--7-7
B-8----8----8----8------------8--8-8-8
G-------------------------------------  x2
D-------------------------------------
A-------------------------------------
E-------------------------------------



For suggestions and corrections 





Comments


Popular U2 tabs & chords
Sunday Bloody Sunday 2 Bass Tabs
Christmas Baby Please Come Home Chords
Fez - Being Born Chords
Lucille Chords
Bullet The Blue Sky Live 2 Tabs
Celebration Tabs
Ms Sarajevo Tabs
Silver And Gold 1 Tabs
New Years Day Ukulele
The Unforgettable Fire Ukulele


Song lyrics



↑ Back to top | Tablatures and chords are parodies/interpretations of the original songs. You may use it for private study, scholarship, research or language learning purposes only
© 2014 AZChords.com Contact us | Privacy policy | DMCA | Add/correct tabs | Request tabs | Top 50 tabs