» » »

U2, Miracle Drug Tabs (ver.2)

Artists:  A B C D E F G H I J K L M N O P Q R S T U V W X Y Z # 

Miracle Drug Tabs (ver.2)

U2 Tabs
 Rating:
4/5 (4 votes)
Miracle Drug lessons Tabs too difficult? Try these video lessons and learn fast
                -----------------------------------------------------------------------------
                             Miracle Drug – U2
-----------------------------------------------------------------------------

Tuning:

Verse
e|--------------7-----------------------------------------------------------|
B|---10---------------------------------------------------------------------|
G|-7----9-7h9-7---7---------------------------------------------------------|
D|--------------------------------------------------------------------------|
A|--------------------------------------------------------------------------|
E|--------------------------------------------------------------------------|

“Time will disappear”
e|-------5-----------5--------5-----------7--------5-----------5------------|
B|-----5---5---5-------5----5---5-----5-----5----5---5---5-------5----------|
G|--/7-------6---6-6-----/7-------7-7---7-----/7-------6---6-6--------------|
D|--------------------------------------------------------------------------|
A|-----------------------------------------------------------------/5-4-----|
E|----------------------------------------------------------------------3---|

Chorus
e|10-10-10-10-10-10-10-10-10--10-10-10-10-10-10-10--------------------------|
B|-7--7--7--7--7--7--7--7—7p8--8—-8--8--8--8--8--8--------------------------|
G|-7--7--7--7--7--7--7--7--7---7--7--7--7--7--7--7--------------------------|
D|-0--0--0--0--0--0--0--0--0---0--0--0--0--0--0--0--------------------------|
A|--------------------------------------------------------------------------|
E|--------------------------------------------------------------------------|

Solo (with bottleneck)
e|--------------------------------------------------------------------------|
B|------------------------------------------12\10/14\10\-/7\5/10\7----------|
G|--------------------------------------------------------------------------|
D|-7/12-11/12\11-7-7/9-/12-12-12/14-12\11\9---------------------------------|
A|--------------------------------------------------------------------------|
E|--------------------------------------------------------------------------|
Solo (no more bottleneck)
e|-12-14-5-7-17-15-14-12-14-10-7--------------------------------------------|
B|--X--X-X-X--X--X--X--X--X--X-X--------------------------------------------|
G|--------------------------------------------------------------------------|
D|--------------------------------------------------------------------------|
A|--------------------------------------------------------------------------|
E|--------------------------------------------------------------------------|

Bridge
e|-10-10--9--9-(10)-17-17-15-15-(17)----------------------------------------|
B|-10-10-10-10-(10)-15-14-14-12-(12)----------------------------------------|
G|-12-11-11--9—(9)--14-14-12-12-(12)----------------------------------------|
D|--------------------------------------------------------------------------|
A|--------------------------------------------------------------------------|
E|--------------------------------------------------------------------------|

I believe the bridge is not so accurate… Sorry for that !!!

Anyway, I hope this can help…
Sorry for my bad English…

The best page to get Edge’s sound :

| /  slide up
| \  slide down
| h  hammer-on
| p  pull-off
| ~  vibrato
| +  harmonic
| x  Mute note
=============================================================================
            
Submit corrections

comments powered by Disqus
↑ Back to top | U2 Tabs for Miracle Drug. Lyrics for acoustic guitar and electric guitar. Tablatures and chords are parodies/interpretations of the original songs. You may use it for private study, scholarship, research or language learning purposes only