>
 >
 >
Last Night On Earth

Last Night On Earth Guitar Tabs

U2 - Last Night On Earth chords, tabs, tablatures, lyrics

Guitar lessons | Add/correct | Request | Top 50 tabs Artists:  A B C D E F G H I J K L M N O P Q R S T U V W X Y Z 0-9

Last Night On Earth Guitar Tabs – U2

CD, Sheet music, Poster

Do you like Last Night On Earth? Share with your friends now
Bass TabsTabs
LAST NIGHT ON EARTH 

Music by U2 - Lyrics by Bono and The Edge

(LIVE VERSION FROM POPMART TOUR - 1997)



[Tune down your guitar 1/2 step.]

INTRO x2:

e--x---x---x---x-x---x---x---x---x-x-----
B--x---x---x---x-x---x---x---x---x-x-----
G--x---x---x---x-x---x---x---x---x-x-----
D--x---x---x---x-x---x---x---x---x-x-----
A--x---x---x---x-x---x---x---x---x-x-----
E--x---x---x---x-x---x---x---x---x-x-----

e------------------------------------
B------------------------------------
G------------------------------------
D-----2--------------------5---------
A-----2--------------------5--9-9-9--
E--12/0--3b4p0--3b4p0----------------

e------------------------------------
B------------------------------------
G------------------------------------
D-----2--------------------5--------- x4
A-----2--------------------5--9-9-9--
E-----0--3b4p0--3b4p0----------------

She feels the ground is giving way
But she thinks we're better off the way

   G  G  G  G    A  A  A  A
e--3--3--3--3----5--5--5--5---
B--3--3--3--3----5--5--5--5---
G--4--4--4--4----6--6--6--6---
D--5--5--5--5----7--7--7--7---
A--5--5--5--5----7--7--7--7---
E--3--3--3--3----5--5--5--5---

"The more you take the less you feel
The less you know the more you believe

e------------------------------------
B------------------------------------
G------------------------------------
D-----2--------------------5--------- x2
A-----2--------------------5--9-9-9--
E--12/0--3b4p0--3b4p0----------------

The more you have the more it takes today"

   G  D  A  Bm   G  D  E  Bm   G  D  A  Bm
e-----------------------------------------
B-----------------------------------------
G-----7-------------7-------------7------- [Power chords]
D--5--7--7--9----5--7--2--9----5--7--7--9-
A--5--5--7--9----5--5--2--9----5--5--7--9-
E--3-----5--7----3-----0--7----3-----5--7-

You got to give it away
You got to give it away
You got to give it away

e-------5-5-5
B-------5-5-5
G-------6-7-6 x2
D--5/7--7-7-7
A--5/7--7-7-7
E--3/5--5-5-5

She doesn't care what it's worth
She's living like it's the last night on Earth

e------------------------------------
B-0-12-12--0-12-12--0-12-12--15/14---
G------------------------------------
D------------------------------------ x2
A------------------------------------
E------------------------------------

e------------------------------------
B------------------------------------
G------------------------------------ x6
D-----2--------------------5---------
A-----2--------------------5--9-9-9--
E-----0--3b4p0--3b4p0----------------

She's not waiting on a saviour to come
She's at a bus stop with the news of the world
And the sun, sun here it comes
She's not waiting for anyone

   G  D  A  Bm   G  D  E  Bm   G  D  A  Bm
e-----------------------------------------
B-----------------------------------------
G-----7-------------7-------------7-------  [Power chords]
D--5--7--7--9----5--7--2--9----5--7--7--9-
A--5--5--7--9----5--5--2--9----5--5--7--9-
E--3-----5--7----3-----0--7----3-----5--7-

You got to give it away
You got to give it away
You got to give it away
        
   G A  A A A
e-------5-5-5
B-------5-5-5
G-------6-7-6 x2
D--5/7--7-7-7
A--5/7--7-7-7
E--3/5--5-5-5

She knows just what it's worth
She's living like it's the last night on Earth

e------------------------------------
B-0-12-12--0-12-12--0-12-12--15/14---
G------------------------------------
D------------------------------------ x2
A------------------------------------
E------------------------------------

e--------9-9-9-----5------0----------
B---------9-9-9-----5------0---------
G------------------------------------
D------------------------------------ x6
A------------------------------------
E--0---9--------9/5---5/0------------

The world turns and we get dizzy	

e------------------------------------
B------------------------------------
G------------------------------------
D-----------------------------------
A------------------------------------
E--0-0-0-0-0-0--12-12-12-12-12-12/---

sometimes you Slipping away

e------------------------------------
B------------------------------------
G------------------------------------x4
D-----2--------------------5---------
A-----2--------------------5--9-9-9--
E--12/0--3b4p0--3b4p0----------------

She's living, living next week now
You know she's going to pay it back somehow

   G  G  G  G    A  A  A  A
e--3--3--3--3----5--5--5--5---
B--3--3--3--3----5--5--5--5---
G--4--4--4--4----6--6--6--6---
D--5--5--5--5----7--7--7--7---
A--5--5--5--5----7--7--7--7---
E--3--3--3--3----5--5--5--5---

She hasn't been to bed in a week
She'll be dead soon, then she'll sleep

   G  D  A  Bm   G  D  E  Bm   G  D  A  Bm
e-----------------------------------------
B-----------------------------------------
G-----7-------------7-------------7------- [Power chords]
D--5--7--7--9----5--7--2--9----5--7--7--9-
A--5--5--7--9----5--5--2--9----5--5--7--9-
E--3-----5--7----3-----0--7----3-----5--7-

You got to give it away
You got to give it away
You got to give it away

   G A  A A A
e-------5-5-5
B-------5-5-5
G-------6-7-6 x2
D--5/7--7-7-7
A--5/7--7-7-7
E--3/5--5-5-5

She already knows it hurts
She's living like it's the last night on Earth


e------------------------------------
B-0-12-12--0-12-12--0-12-12--15/14---
G------------------------------------
D------------------------------------ x4
A------------------------------------
E------------------------------------


e------------------------------------------
B------------------------------------------
G------------------------------------------ [Power chords (Heavy distortion)]
D-2----7-5--2----7-5----------------------- x2
A-2----7-5--2----7-5-----------------------
E-0----5-3--0----5-3-----------------------

e------------------------------------
B-0-12-14-14b--12-14-14br--12-14-12--
G------------------------------------
D------------------------------------ x6
A------------------------------------
E-----------------------------------
                                                  E
e---12---12--12--12--12--12--12------12-----12/---0------
B-12--12---12--12--12--12------12-12---12-12------0------
G-------------------------------------------------1------
D-------------------------------------------------2------
A-------------------------------------------------2------
E-------------------------------------------------0------



For suggestions and corrections





Comments


Popular U2 tabs & chords
New Years Day 2 Bass Tabs
New York Bass Tabs
The Playboy Mansion Bass Tabs
Crumbs From Your Table Chords
Hallelujah Here She Comes Chords
Hold Me Thrill Me Kiss Me Kill Me Chords
A Sort Of Homecoming Live 1 Tabs
Acrobat Tabs
Pride Tabs
Two Hearts Beat As One Ukulele


Song lyrics



↑ Back to top | Tablatures and chords are parodies/interpretations of the original songs. You may use it for private study, scholarship, research or language learning purposes only
© 2014 AZChords.com Contact us | Privacy policy | DMCA | Add/correct tabs | Request tabs | Top 50 tabs