» » »

U2, I Still Haven't Found What I'm Looking For Tabs (ver.4)

Artists:  A B C D E F G H I J K L M N O P Q R S T U V W X Y Z # 

I Still Haven't Found What I'm Looking For Tabs (ver.4)

U2 Tabs
 Rating:
2.6/5 (8 votes)
I Still Haven't Found What I'm Looking For lessons Tabs too difficult? Try these video lessons and learn fast
                "(3)
I Still Haven't Found What I'm Looking For in Church

Danny boy


Capo on 3-rd fret


During the verses play this:
e------------------------------------4~ ---------------------------------|
b-----5-5-------5------5-5-------------5---------------------------------|
g--2--------2-------2----------------------------------------------------| 2X
d------------------------------------------------------------------------|
a------------------------------------------------------------------------|
e------------------------------------------------------------------------|

I have climbed highest mountains
I have run through the fields


e------------------------------------4~ ---------------------------------|
b-----5-5-------5------5-5-------------5---------------------------------|
g------------------------------------------------------------------------| 1X
d--0----------0------0---------------------------------------------------|
a------------------------------------------------------------------------|
e------------------------------------------------------------------------|


Only to be with you

e------------------------------------4~ ---------------------------------|
b-----5-5-------5------5-5-------------5---------------------------------|
g--2--------2-------2----------------------------------------------------|
d------------------------------------------------------------------------|
a------------------------------------------------------------------------|
e------------------------------------------------------------------------|

Only to be with you
I have run
I have crawled
I have scaled these city walls
These city walls
Only to be with you......


than play  refrain

e-------0------------------------------------------------------------------|
b-----------------------------3------------------5-5-----5-----5-5------5--|
g----1----------1----------2----------2-------2--------2----2---------2----|
d--2--------------2------0--------------0----------------------------------|
a--------------------------------------------------------------------------|
e--------------------------------------------------------------------------|
But I   still  haven't  found         what I'm  looking for
But I   still  haven't  found         what I'm looking for

~ - vibrato


That`s all!
I hope you will like this version of song "I still havent found what Im looking for", as 
gospel song. It`s sounds exactly as original version. Remember Capo on 3 fred!
"            
Submit corrections

comments powered by Disqus
↑ Back to top | U2 Tabs for I Still Haven't Found What I'm Looking For. Lyrics for acoustic guitar and electric guitar. Tablatures and chords are parodies/interpretations of the original songs. You may use it for private study, scholarship, research or language learning purposes only