>
 >
 >
Gone

Gone Guitar Tabs

U2 - Gone chords, tabs, tablatures, lyrics

Guitar lessons | Add/correct | Request | Top 50 tabs Artists:  A B C D E F G H I J K L M N O P Q R S T U V W X Y Z 0-9

Gone Guitar Tabs – U2

CD, Sheet music, Poster

Do you like Gone? Share with your friends now
Bass TabsTabs
GONE 

Music by U2 - Lyrics by Bono and The Edge

(LIVE VERSION FROM POPMART TOUR - 1997)



[Tune down your guitar 1/2 step.]

   E E  E E  E
e--0-0--0-0--0----
B--0-0--0-0--0----
G--1-1--1-1--1----
D--2-2--2-2--2----
A--2-2--2-2--2----
E--0-0--0-0--0----

You get to feel so guilty
Got so much for so little

   D  A  E
e--0--0--0---0----
B--3--2--0-----0--
G--2--2--1--------
D--0--2--2--------
A--0--0--2--------
E-----0--0---------

The you find that feeling
Just won't go away

e----
B----
G----
D----
A----
E-0--

You're holding on to Every little thing so tightly

   D  A  E
e--0--0--0---0----
B--3--2--0-----0--
G--2--2--1--------
D--0--2--2--------
A--0--0--2--------
E-----0--0--------

Till there's nothing
Left for you anyway

   G  D  G                    Em       C
e--3--2--3--------------------0-0------0-
B--0--3--0--------------------0---0----1-
G--0--2--0--------------------0-----0--0-
D--0--0--0--------------------2--------2-
A--2--0--2--------------------2--------3-
E--3-----3--3-2---------------0--------0-

Goodbye,   you can keep this suit of light

          Am              D
e-------  -0-----0-----0--2-----2h3-----
B-------  -1---1-----1----3---3-----3---
G-------  -2-2-----2------2-2---------2-
D-------  -2--------------0------------- x3
A-5-3-2-  -0--------------0-------------
E-------  -------------------

I'll be up with the sun
And not coming down
I'm not coming down
I'm not coming down

   E E  E E  E
e--0-0--0-0--0----
B--0-0--0-0--0----
G--1-1--1-1--1----
D--2-2--2-2--2----
A--2-2--2-2--2----
E--0-0--0-0--0----

You wanted to get
Somewhere so badly

   D  A  E
e--0--0--0---0----
B--3--2--0-----0--
G--2--2--1--------
D--0--2--2--------
A--0--0--2--------
E-----0--0---------

You had to lose yourself
Along the way


[Repeat]


You change a name
But that's okay, it's necessary
And what you leave behind
You don't miss anyway

  G  D  G                    Em       C
e-3--2--3--------------------0-0------0-
B-0--3--0--------------------0---0----1-
G-0--2--0--------------------0-----0--0-
D-0--0--0--------------------2--------2-
A-2--0--2--------------------2--------3-
E-3-----3--3-2---------------0--------0-

Goodbye,   you can keep this suit of light
          
           Am      D
e------  -------3-3-2-2-
B------  ---0-1---------
G------  -2-------------
D------  -------------- x3
A--3-2-  ---------------
E------  ---------------

I'll be up with the sun
And not coming down
I'm not coming down
I'm not coming down

   E     D  Am   D  Am
e--0-  --0--0----0--0----
B--0-  --3--1----3--1----
G--1-  --2--2----2--2----
D--2-  --0--2----0--2----
A--2-  --0--0----0--0----
E--0-  ------------------

       'Cause I'm already gone
        Felt that way all along

    D  Am   D  Am
e---2--0----2--0--
B---3--1----3--1--
G---2--2----2--2--
D---0--2----0--2--
A--0--0----0--0--
E-----------------

Closer to you everyday, 
didn't want it that much anyway

e----------------
B----------------
G----------------
D----------------
A--3-2(3)2-0-----
E------------3-0-

  Em
e-0----
B-0----
G-0----
D-2----
A-2----
E-0----

You're taking steps
That make you feel dizzy

   D  A  Em
e--0--0--0----0----
B--3--2--0------0--
G--2--2--0--------
D--0--2--2--------
A--0--0--2--------
E-----0--0--------

The you get to like
The way it feels

  Em
e-0----
B-0----
G-0----
D-2----
A-2----
E-0----

You hurt yourself
You hurt your lover
Then you think to discover

   D  Am Em
e--0--0--0----0----
B--3--2--0------0--
G--2--2--0--------
D--0--2--2--------
A--0--0--2--------
E-----0--0--------

What you thought
Was freedom
Was just greed

  G  D  G                    Em       C
e-3--2--3--------------------0-0------0-
B-0--3--0--------------------0---0----1-
G-0--2--0--------------------0-----0--0-
D-0--0--0--------------------2--------2-
A-2--0--2--------------------2--------3-
E-3-----3--3-2---------------0--------0-

Goodbye,  no emotional goodnight


e------  -------3-3-2-2-
B------  ---0-1---------
G------  -2-------------
D------  -------------- x3
A--3-2-  ---------------
E------  ---------------

We'll be up with the sun
Are you still holding on?
I'm not coming down
I'm not coming down

   E E  E E  E
e--0-0--0-0--0----
B--0-0--0-0--0----
G--1-1--1-1--1----
D--2-2--2-2--2----
A--2-2--2-2--2----
E--0-0--0-0--0----

   D  A  E
e--0--0--0-------
B--3--2--0-------
G--2--2--1-------
D--0--2--2-------
A--0--0--2-------
E-----0--0-------



For suggestions and corrections





Comments


Popular U2 tabs & chords
God Part Ii 3 Bass Tabs
Your Blue Room Bass Tabs
Grace Chords
Peace On Earth Chords
Stuck In A Moment You Cant Get Out Of 2 Chords
A Celebration 1 Tabs
A Day Without Me Tabs
Crumbs From Your Table 2 Tabs
One Live 2 Tabs
The Ocean Tabs


Song lyrics



↑ Back to top | Tablatures and chords are parodies/interpretations of the original songs. You may use it for private study, scholarship, research or language learning purposes only
© 2014 AZChords.com Contact us | Privacy policy | DMCA | Add/correct tabs | Request tabs | Top 50 tabs