» » »

Gloria Tabs (ver.3)

Artists:  A B C D E F G H I J K L M N O P Q R S T U V W X Y Z # 

Gloria Tabs (ver.3)

U2
Rating:
0/5 (0 votes)

Hard to play? Try these video lessons and learn fast.
                I hope this reaches you,  I've had fun with returned mail etc.


I figured this out in my head, it goes pretty much like this I think.
This is the part at the start and through the verses, there are a few
bits played a bit differently but they are pretty easy to figure out

- --------10-12-------10-12---12-10-14-12-10-9-10-12-10----------------------
- -10-12--------10-12-------10-----------------------------------------------
- ---------------------------------------------------------------------------
- ---------------------------------------------------------------------------
- ---------------------------------------------------------------------------
- ---------------------------------------------------------------------------


- -------10-12-------10-12----12-10-9-------10-9-----------------------------
- -10-12-------10-12-------10---------10-12------10-12-----------------------
- ---------------------------------------------------------------------------
- ---------------------------------------------------------------------------
- ---------------------------------------------------------------------------
- ---------------------------------------------------------------------------


The chords are :
E  E  D  A     -  The verse
Bm Asus4 Em Bm -  The chorus
Bm A Em Bm     -  The solo

I can't remember the solo at the moment, it involves a slide from
memory but I'll send it in if I remember it.
            
Hard to play? Try these video lessons and learn fast. | Correct




comments powered by Disqus
↑ Back to top | Tablatures and chords are parodies/interpretations of the original songs. You may use it for private study, scholarship, research or language learning purposes only