» » »

Get On Your Boots Tabs (ver.4)

Artists:  A B C D E F G H I J K L M N O P Q R S T U V W X Y Z # 

Get On Your Boots Tabs (ver.4)

U2
Rating:
0/5 (0 votes)

Hard to play? Try these video lessons and learn fast.
                U2 - Get On Your Boots

The first single from the Album "No Line On The Horizon"


Standard Tuning



Intro

e|---------------------------------------------------------------------------|
B|---------------------------------------------------------------------------|
G|----7---5-------5-------7--------5-------5--------5------------------------|
D|----7---5-------5-------7--------5-------5--------5-------5---7------------|  x 4
A|----5-\-3---0---3---0---5--------3---0---3--------3---0---5---7------------|
E|----------------------------------------------------------3-/-5------------|

The future needs a big kiss
Winds blows with a twist
Never seen a moon like this
Can you see it too?

Night is falling everywhere
Rockets at the fun fair
Satan loves a bomb scare
But he won’t scare you




Hey, sexy boots
Get on your boots, yeah
e|---------------------------------------------------------------------------|
B|---------------------------------------------------------------------------|
G|----7---5-------5-------7--------5-------5--------5------------------------|
D|----7---5-------5-------7--------5-------5--------5-------5---7------------|  x 3
A|----5-\-3---0---3---0---5--------3---0---3--------3---0---5---7------------|
E|----------------------------------------------------------3-/-5------------|


You free me from the dark dream
Candy floss ice cream
All our kids are screaming
But the ghosts aren’t real

Here’s where we gotta be
Love and community
Laughter is eternity
If joy is real


Chorus Riff

e|---------------------------------------------------------------------------|
B|---------------------------------------------------------------------------|
G|---4-----5-----------------------------------8----10-----------------------|
D|---5-----6-------5-----6-------5-----6-------8----10-----------------------|  x 2
A|---5-----6-------5-----6-------5-----6-------6----8------------------------|
E|---3-----4-------3-----4-------3-----4-------------------------------------|

You don’t know how beautiful
You don’t know how beautiful you are
You don’t know, and you don’t get it, do you?
You don’t know how beautiful you are



Background Riff
e|----------------------------------------|
B|---9-----13--8-------13--7-----13-------|
G|----------------------------------------|
D|----------------------------------------|
A|----------------------------------------|
E|----------------------------------------|


That’s someone’s stuff they’re blowing up
We’re into growing up
Women of the future
Hold the big revelations

I got a submarine
You got gasoline
I don’t want to talk about wars between nations


Not right now

Hey sexy boots…
Get on your boots, yeah
Not right now
Bossy boots
e|---------------------------------------------------------------------------|
B|---------------------------------------------------------------------------|
G|----7---5-------5-------7--------5-------5--------5------------------------|
D|----7---5-------5-------7--------5-------5--------5-------5---7------------|  x 4
A|----5-\-3---0---3---0---5--------3---0---3--------3---0---5---7------------|
E|----------------------------------------------------------3-/-5------------|



You don’t know how beautiful
You don’t know how beautiful you are
You don’t know, and you don’t get it, do you?
You don’t know how beautiful you are
e|---------------------------------------------------------------------------|
B|---------------------------------------------------------------------------|
G|---4-----5-----------------------------------8----10-----------------------|
D|---5-----6-------5-----6-------5-----6-------8----10-----------------------|  x 2
A|---5-----6-------5-----6-------5-----6-------6----8------------------------|
E|---3-----4-------3-----4-------3-----4-------------------------------------|


Hey sexy boots
I don’t want to talk about the wars between the nations
Sexy boots, yeah
e|---------------------------------------------------------------------------|
B|---------------------------------------------------------------------------|
G|----7---5-------5-------7--------5-------5--------5------------------------|
D|----7---5-------5-------7--------5-------5--------5-------5---7------------|  x 4
A|----5-\-3---0---3---0---5--------3---0---3--------3---0---5---7------------|
E|----------------------------------------------------------3-/-5------------|


Let me in the sound
Let me in the sound
Let me in the sound, sound
Let me in the sound, sound
Meet me in the sound

Let me in the sound
Let me in the sound, now
God, I’m going down
I don’t wanna drown now
Meet me in the sound

Let me in the sound
Let me in the sound
Let me in the sound, sound
Let me in the sound, sound
Meet me in the sound



Get on your boots
Get on your boots
Get on your boots
Yeah hey hey
e|---------------------------------------------------------------------------|
B|---------------------------------------------------------------------------|
G|----7---5-------5-------7--------5-------5--------5------------------------|
D|----7---5-------5-------7--------5-------5--------5-------5---7------------|  x 8
A|----5-\-3---0---3---0---5--------3---0---3--------3---0---5---7------------|
E|----------------------------------------------------------3-/-5------------|

e|---------------|
B|---------------|
G|------7--------|
D|------7--------|  
A|------5--------|
E|---------------|
            
Hard to play? Try these video lessons and learn fast. | Correct




comments powered by Disqus
↑ Back to top | Tablatures and chords are parodies/interpretations of the original songs. You may use it for private study, scholarship, research or language learning purposes only