» » »

U2, Get On Your Boots Tabs (ver.1)

Artists:  A B C D E F G H I J K L M N O P Q R S T U V W X Y Z # 

Get On Your Boots Tabs (ver.1)

U2 Tabs
 Rating:
4/5 (4 votes)
Get On Your Boots lessons Tabs too difficult? Try these video lessons and learn fast

WWW.AZCHORDS.COM | U2 Tabs - Get On Your Boots Tabs (ver. 1)


Intro & Main Riff:

e|---------------------------------------|
B|---------------------------------------|
G|---------------------------------------|
D|---------------------------------------|
A|-5p3----3---5------3---3----3----------|
E|-----5h---5----------5---------5-3-5---|

Pre-chorus:

"You don't know how beautiful..."

	G		G#		G              G#
e|-----3--3-3--3-3----4--4-4--4-4----3--3-3--3-3----4--4-4--4-4--|
B|-----3--3-3--3-3----4--4-4--4-4----3--3-3--3-3----4--4-4--4-4--|
G|-----4--4-4--4-4----5--5-5--5-5----4--4-4--4-4----5--5-5--5-5--|
D|-----5--5-5--5-5----6--6-6--6-6----5--5-5--5-5----6--6-6--6-6--|
A|-----5--5-5--5-5----6--6-6--6-6----5--5-5--5-5----6--6-6--6-6--|
E|-----3--3-3--3-3----4--4-4--4-4----3--3-3--3-3----4--4-4--4-4--|

"You don't know how beautiful you are..."

	G		A#		D#		F
e|-----3--3-3--3-3----6--6-6--6-6----6--6-6--6-6----8--8--8--8--8-|
B|-----3--3-3--3-3----6--6-6--6-6----8--8-8--8-8---10-10-10-10-10-|
G|-----4--4-4--4-4----7--7-7--7-7----8--8-8--8-8---10-10-10-10-10-|
D|-----5--5-5--5-5----8--8-8--8-8----8--8-8--8-8---10-10-10-10-10-|
A|-----5--5-5--5-5----8--8-8--8-8----6--6-6--6-6----8--8--8--8--8-|
E|-----3--3-3--3-3----6--6-6--6-6----x--x-x--x-x----x--x--x--x--x-| 

Repeat the Pre-chorus sequence one more time and finish with a G.

Main Riff with this Mini-solo played over the top:

e|-----8(8)-----8(8)------8(8)-|
B|-9(9)----8(8)------7(7)------|
G|-----------------------------|
D|-----------------------------|
A|-----------------------------|
E|-----------------------------|

Play Pre-Chorus again twice

Break Solo:

e|--------------------------------------------------------------------|
B|-15-----------------------------------------------------------------|
G|-------9--10--9--7-5----9---10-9-7-5----9--10--9-7-5----9-10-12-14--|
D|--------------------------------------------------------------------|
A|--------------------------------------------------------------------|
E|--------------------------------------------------------------------|

After that it's time to finish it off with the chorus riff repeated until the end.
This small hammer-on fill is played during the last lines.
End fill:

e|-----|
B|-----|
G|-5h7-|
D|-----|
A|-----|
E|-----|
Repeat a couple of times.

So ultimately, this is the structure of the song:
1. Intro (Main riff)
2. Verse (palm muted guitar)
3. Chorus 
4. Verse
5. Pre-Chorus
6. Mini-solo
7. Verse (palm muted guitar)
8. Chorus
9. Pre-Chorus
10. Chorus
11. Break solo
12. Final Chorus (Hammer-on fills)
            
Submit corrections

↑ Back to top | U2 Tabs for Get On Your Boots. Lyrics for acoustic guitar and electric guitar. Tablatures and chords are parodies/interpretations of the original songs. You may use it for private study, scholarship, research or language learning purposes only