>
 >
 >
Even Better Than The Real Thing

Even Better Than The Real Thing Guitar Tabs

U2 - Even Better Than The Real Thing chords, tabs, tablatures, lyrics

Guitar lessons | Add/correct | Request | Top 50 tabs Artists:  A B C D E F G H I J K L M N O P Q R S T U V W X Y Z 0-9

Even Better Than The Real Thing Guitar Tabs – U2

CD, Sheet music, Poster

Do you like Even Better Than The Real Thing? Share with your friends now
Bass TabsTabsTabs v2Tabs v3
Transcripted by Marko Becker

 This tab is a live version of "Even better than the real thing" 
 that U2 played during their Zoo-Tv Tour. 
 I personally own a ZOOM " PLAYER " 2020 and the sound that I created 
 is very similar to Edge's sound. 
 I think the most important thing of the song is the delay-effect 
 (Zoom Player: 350ms, Feedback 2, Mix 7)  
 
 Comments or other suggestions are requested. 
 Now enjoy playing this song.

 **INTRO**
 
 D5 - x577xx  

 At the beginning of the song The Edge plays a D5 chord that he modifies with 
 his DigiTech "Whammy". So he can create this special sound. 
 If you haven't got a "Whammy" you can create a similar sound 
 with a small trick. 
 Play the Ab and the Db string together and repeat this 2 times, 
 then play the Gb string and the other 2 strings alternately.
 
 So, that's it, not very difficult.
 
 
 ** FIGURE 1 **
      
      a              b                c            d
 
 eb-------|----------------------|---------|--------------|-
 Bb----7p-|-------------------7p-|---------|----------7p--|-
 Gb-------|-------5--4-----------|-------5-|-4-----0------|-
 Db--0----|-5--7--------7--0-----|-5--7----|----7---------|-
 Ab-------|----------------------|---------|--------------|-
 Eb-------|----------------------|---------|--------------|-
                              
             e                   f
 eb-----------------------|--------------|-
 Bb--------------------7p-|--------------|-   P = pull string and bend the
 Gb--------5--4-----------|--------5--4--|-       note a half step up and 
 Db--5--7--------7--0-----|--5--7--------|-       down
 Ab-----------------------|--------------|-
 Eb-----------------------|--------------|-

 
 ** FIGURE 2 **
      
       a        b          c             d
 
 eb--8-----|---12----|-----3------|--------------------|-
 Bb--8-----|---12----|-----3------|-----7p-------------|-
 Gb--------|---------|------------|--------------5--4--|-
 Db--------|---------|------------|--0-----5--7--------|-
 Ab--------|---------|------------|--------------------|-
 Eb--8-----|---12----|-----3------|--------------------|-

 ** FIGURE 3 **
                          D5
 eb--------------------|--------  
 Bb--------------------|--------      
 Gb--------------------|--7-----    
 Db--14--12--10--9--7--|--7-----
 Ab--12--19---8--7--5--|--5----- 
 Eb--------------------|--------  
              
 ** Solo (use bottleneck) **
                                  Solo part I
 eb-------------------------------------------------------------------->
 Bb-------------------------------------------------------------------->
 Gb-0--2--7--5--7--11--9--7--5--2--0--2--7--10--12--10--7--10--12--14-->
 Db-------------------------------------------------------------------->
 Ab-------------------------------------------------------------------->
 Eb-------------------------------------------------------------------->
               
                                           Solo part II 
                              (repeat the last two notes several times)                 
 eb--13--10--15--13--12--10-|-----------------------------------------------
 Bb----------------------10-|-----------------------------------------------
 Gb-------------------------|--7--12--10--9--10--12--10--9--10--9--7--5--7--
 Db-------------------------|-----------------------------------------------
 Ab-------------------------|-----------------------------------------------
 Eb-------------------------|-----------------------------------------------

 
 VERSE 1:

 
  
 Give me one more chance, and you'll be satisfield
 
       
 Give me two more chances  you won't be denied
 
 
 Well my heart is where it's always been
 
 
 My head is somewhere in between 
 
  
 Give me one more chance let me be your lover tonight.

 
 REFRAIN:
 
 
 
 You're the real thing, yeah the real thing, you're the real thing 
 
 
 Even better than the real thing... 

 
 VERSE 2:
 
  
 Give me one last chance and I'm gonna make you sing
 
  
 Give me half a chance to ride on the waves that you bring
 
 
 You're the honey child to a swarm of bees 
 
 
 Gonna blow right through like a breeze
 
  
 Give me one last dance, we'll slide it down on the surface of things

 
 REFRAIN: 
 

 
 You're the real thing, yeah the real thing, you're the real thing         
 
 
 Even better than the real thing...

 ** After the second refrain Edge starts his solo. The first part is played
    without words. In the second part Bono starts to sing **

 
 
 
 Oh no, oh no here she comes

 
 ** The next part of the song is played like the REFRAIN **
 
 
 Take me higher, take me higher, can you take me higher?, will you take me 
 higher?
 You're the real thing, yeah the real thing, you're the real thing
 Even better than the real thing 
 Even better than the real thing
 Even better than the real thing...





Comments


Popular U2 tabs & chords
I'm Not Your Baby 1 Bass Tabs
Pride In The Name Of Love Live Bass Tabs
Sunday Bloody Sunday 3 Bass Tabs
Trip Through Your Wires Bass Tabs
Hallelujah Here She Comes 1 Chords
Moment Of Surrender Chords
Cedars Of Lebanon Tabs
If God Will Send His Angels 1 Tabs
One Tree Hill Live Tabs
With Or Without You 3 Tabs


Song lyrics



↑ Back to top | Tablatures and chords are parodies/interpretations of the original songs. You may use it for private study, scholarship, research or language learning purposes only
© 2014 AZChords.com Contact us | Privacy policy | DMCA | Add/correct tabs | Request tabs | Top 50 tabs