» » »

Babyface Tabs (ver.1)

Artists:  A B C D E F G H I J K L M N O P Q R S T U V W X Y Z # 

Babyface Tabs (ver.1)

U2
Rating:
4/5 (2 votes)
Tabs too difficult? Try these video lessons and learn fast.
                Tune down half-step.

This is the muted part before the main guitar verse starts. Mute the string with your 
to make the effect. It sounds like it also has some wah on it.
E|----------------------------------------|
B|---(3)-----/------(15)------\------(3)--|
G|----------------------------------------|
D|----------------------------------------|
A|----------------------------------------|
E|----------------------------------------|


Verse (distorted similar like "Numb", but I don't have such effects available)

E|--------------------------------|
B|--------------------------------|
G|-7----7-x-7---7-x--4----4-x-----|
D|-7----7-x-7---7-x--4----4-x--5--|
A|-5----5-x-5---5-x--2----2-x--5--|
E|-----------------------------3--|
Babyface, Babyface
Slow down child, let me untie your lace.

Chorus

E|-----------------|
B|-----------------|
G|--7777/99/11\----|   2X
D|--7777/99/11\----|
A|--5555/77/-9\----|
E|-----------------|
...Babyface, Babyface....

E|----------------|
B|----------------|
G|----------------|
D|-5555/77/9\-----|     2X
A|-5555/77/9\-----|
E|-3333/55/7\-----|
...Cover girl with natural grace.

E|--------------------|
B|--------------------|
G|-99999999-----------|
D|-99999999-----------|   2X
A|-77777777-7777-99-7-|
E|----------5555-77-5-|
...How could beauty be so kind
To an ordinary guy?....

Tese riffs are repeated during the rest of the song.
            
Tabs too difficult? Try these video lessons and learn fast.


comments powered by Disqus
↑ Back to top | Tablatures and chords are parodies/interpretations of the original songs. You may use it for private study, scholarship, research or language learning purposes only