>
 >
 >
Always

Always Guitar Tabs

U2 - Always chords, tabs, tablatures, lyrics

Guitar lessons | Add/correct | Request | Top 50 tabs Artists:  A B C D E F G H I J K L M N O P Q R S T U V W X Y Z 0-9

Always Guitar Tabs – U2

CD, Sheet music, Poster

Do you like Always? Share with your friends now
Bass TabsBass Tabs v2ChordsTabsUkulele
Band:U2



Intro:
e|--12-14-10---12-14-17---12-14-10---12-14-17--------------------------------|
B|---------------------------------------------------------------------------|
G|---------------------------------------------------------------------------|
D|---------------------------------------------------------------------------|
A|---------------------------------------------------------------------------|
E|---------------------------------------------------------------------------|

e|-------------------------------------------------------------------------------------------------|
B|-------------------------------------------------------------------------------------------------|
G|11----11----11-----12-11--11-11--11----11----11----12-11--11-11--11----11-----11-----11-11--11-11|
D|---12----12----12-------------------12----12----12------------------12-----12-----12-------------|
A|-------------------------------------------------------------------------------------------------|
E|-------------------------------------------------------------------------------------------------|
 
  Verse:
 
  Here today                 And gone tomorrow 
e|---------------------------------------------------------------------------|
B|---------------------------------------------------------------------------|
G|-----------11----11----11---------------------11----11----11---------------|
D|--------------12----12---------------------------12----12------------------|
A|---------------------------------------------------------------------------|
E|---------------------------------------------------------------------------|
  Crack the bone                  get to the marrow
e|---------------------------------------------------------------------------|
B|--------------------------------------------------------------------10-----|
G|---------------11----11----11----------------------11----11----11----------|
D|------------------12----12----------------------------12----12-------------|
A|---------------------------------------------------------------------------|
E|---------------------------------------------------------------------------|
  To be the bee                  And the flower 
e|---------------------------------------------------------------------------|
B|---------------------------------------------------------------------------|
G|---------------11----11----11-------------------11----11----11-------------|
D|------------------12----12-------------------------12----12----------------|
A|---------------------------------------------------------------------------|
E|---------------------------------------------------------------------------|
  Before the sweetness                    turns to sour   
e|---------------------------------------------------------------------------|
B|---------------------------------------------------------------------------|
G|-----------------------11----11----11-----------------11----11----11-------|
D|--------------------------12----12-----------------------12----12----------|
A|---------------------------------------------------------------------------|
E|---------------------------------------------------------------------------|

Chorus:
  What we have we're gonna keep... always 
e|---------------------------------------------------------------------------|
B|---------------------------------------------------------------------------|
G|-4-4-4-6-6-11-11-11-6-6-6-6-6-6-11-11-11-6-6-6-6-6-6-6-6-6-6-6-------------|
D|-5-5-5-7-7-12-12-12-7-7-7-7-7-7-12-12-12-7-7-7-7-7-7-7-7-7-7-7-------------|
A|-5-5-5-7-7-12-12-12-7-7-7-7-7-7-12-12-12-7-7-7-7-7-7-7-7-7-7-7-------------|
E|-3-3-3-5-5-10-10-10-5-5-5-5-5-5-10-10-10-5-5-5-5-5-5-5-5-5-5-5-------------|

  What we've lost we don't need... always
e|---------------------------------------------------------------------------|
B|---------------------------------------------------------------------------|
G|-4-4-4-6-6-11-11-11-6-6-6-6-6-6-11-11-11-6-6-6-6-6-6-6-6-6-6-6-------------|
D|-5-5-5-7-7-12-12-12-7-7-7-7-7-7-12-12-12-7-7-7-7-7-7-7-7-7-7-7-------------|
A|-5-5-5-7-7-12-12-12-7-7-7-7-7-7-12-12-12-7-7-7-7-7-7-7-7-7-7-7-------------|
E|-3-3-3-5-5-10-10-10-5-5-5-5-5-5-10-10-10-5-5-5-5-5-5-5-5-5-5-5-------------|

  What we've lost we don't need... always
e|---------------------------------------------------------------------------|
B|---------------------------------------------------------------------------|
G|-4-4-4-6-6-11-11-11-6-6-6-6-6-6-11-11-11-6-6-6-6-6-6-6-6-6-6-6-------------|
D|-5-5-5-7-7-12-12-12-7-7-7-7-7-7-12-12-12-7-7-7-7-7-7-7-7-7-7-7-------------|
A|-5-5-5-7-7-12-12-12-7-7-7-7-7-7-12-12-12-7-7-7-7-7-7-7-7-7-7-7-------------|
E|-3-3-3-5-5-10-10-10-5-5-5-5-5-5-10-10-10-5-5-5-5-5-5-5-5-5-5-5-------------|

  What is it that won't let you sleep... always 
e|---------------------------------------------------------------------------|
B|---------------------------------------------------------------------------|
G|-4-4-4-6-6-11-11-11-6-6-6-6-6-6-11-11-11-6-6-6-6-6-6-6-6-6-6-6-------------|
D|-5-5-5-7-7-12-12-12-7-7-7-7-7-7-12-12-12-7-7-7-7-7-7-7-7-7-7-7-------------|
A|-5-5-5-7-7-12-12-12-7-7-7-7-7-7-12-12-12-7-7-7-7-7-7-7-7-7-7-7-------------|
E|-3-3-3-5-5-10-10-10-5-5-5-5-5-5-10-10-10-5-5-5-5-5-5-5-5-5-5-5-------------|

Bridge:

e|------------------------------------------------------------------------|
B|------------------------------------------------------------------------|
G|--11----11----11-----12-11--11-11-----11----11----11----12-11--11-11----|
D|-----12----12----12----------------------12----12----12-----------------|
A|------------------------------------------------------------------------|
E|------------------------------------------------------------------------|

Verse:
  Be the arrow        And the target              
e|---------------------------------------------------------------------------|
B|---------------------------------------------------------------------------|
G|----------------11-------------------11-12--11-----------------------------|
D|-------------12-------------------12---------------------------------------|
A|---------------------------------------------------------------------------|
E|---------------------------------------------------------------------------|
  Put your head over       the parapet 
e|---------------------------------------------------------------------------|
B|---------------------------------------------------------------------------|
G|--11---11---11-----------11--11---11---12----------------------------------|
D|----12---12---12-----------12--12---12-------------------------------------|
A|---------------------------------------------------------------------------|
E|---------------------------------------------------------------------------|
  Be uncool                  Yes, be awkward 
e|---------------------------------------------------------------------------|
B|---------------------------------------------------------------------------|
G|----------11----11-12-----------11----11-12--------------------------------|
D|-------------12--------------------12--------------------------------------|
A|---------------------------------------------------------------------------|
E|---------------------------------------------------------------------------|
 And don't look in the obvious place
e|---------------------------------------------------------------------------|
B|---------------------------------------------------------------------------|
G|--11----11----11-----------------------------------------------------------|
D|-----12----12--------------------------------------------------------------|
A|---------------------------------------------------------------------------|
E|---------------------------------------------------------------------------|
  The soul needs beauty for a soul mate 
e|---------------------------------------------------------------------------|
B|---------------------------------------------------------------------------|
G|--11----11----11----------------------11--11-------------------------------|
D|-----12----12-----------------------------12-------------------------------|
A|---------------------------------------------------------------------------|
E|---------------------------------------------------------------------------|




Chorus:
 
  Get down off your holy cloud... always 
e|---------------------------------------------------------------------------|
B|---------------------------------------------------------------------------|
G|-4-4-4-6-6-11-11-11-6-6-6-6-6-6-11-11-11-6-6-6-6-6-6-6-6-6-6-6-------------|
D|-5-5-5-7-7-12-12-12-7-7-7-7-7-7-12-12-12-7-7-7-7-7-7-7-7-7-7-7-------------|
A|-5-5-5-7-7-12-12-12-7-7-7-7-7-7-12-12-12-7-7-7-7-7-7-7-7-7-7-7-------------|
E|-3-3-3-5-5-10-10-10-5-5-5-5-5-5-10-10-10-5-5-5-5-5-5-5-5-5-5-5-------------|

  God will not deal with the proud... always 
e|---------------------------------------------------------------------------|
B|---------------------------------------------------------------------------|
G|-4-4-4-6-6-11-11-11-6-6-6-6-6-6-11-11-11-6-6-6-6-6-6-6-6-6-6-6-------------|
D|-5-5-5-7-7-12-12-12-7-7-7-7-7-7-12-12-12-7-7-7-7-7-7-7-7-7-7-7-------------|
A|-5-5-5-7-7-12-12-12-7-7-7-7-7-7-12-12-12-7-7-7-7-7-7-7-7-7-7-7-------------|
E|-3-3-3-5-5-10-10-10-5-5-5-5-5-5-10-10-10-5-5-5-5-5-5-5-5-5-5-5-------------|

  Well if you dream then dream out loud... always 
e|---------------------------------------------------------------------------|
B|---------------------------------------------------------------------------|
G|-4-4-4-6-6-11-11-11-6-6-6-6-6-6-11-11-11-6-6-6-6-6-6-6-6-6-6-6-------------|
D|-5-5-5-7-7-12-12-12-7-7-7-7-7-7-12-12-12-7-7-7-7-7-7-7-7-7-7-7-------------|
A|-5-5-5-7-7-12-12-12-7-7-7-7-7-7-12-12-12-7-7-7-7-7-7-7-7-7-7-7-------------|
E|-3-3-3-5-5-10-10-10-5-5-5-5-5-5-10-10-10-5-5-5-5-5-5-5-5-5-5-5-------------|

  Eternally yours... always
e|---------------------------------------------------------------------------|
B|---------------------------------------------------------------------------|
G|-4-4-4-6-6-11-11-11-6-6-6-6-6-6-11-11-11-6-6-6-6-6-6-6-6-6-6-6-------------|
D|-5-5-5-7-7-12-12-12-7-7-7-7-7-7-12-12-12-7-7-7-7-7-7-7-7-7-7-7-------------|
A|-5-5-5-7-7-12-12-12-7-7-7-7-7-7-12-12-12-7-7-7-7-7-7-7-7-7-7-7-------------|
E|-3-3-3-5-5-10-10-10-5-5-5-5-5-5-10-10-10-5-5-5-5-5-5-5-5-5-5-5-------------|


 Bridge:

             I want you           I want you             I want you
e|-----------------------------------------------------------------------------|
B|-----------------------------------------------------------------------------|
G|-12-11-9-7------------12-11-9-7-------------12-11-9-7---------------12-11-9-7|
D|-----------------------------------------------------------------------------|
A|-----------------------------------------------------------------------------|
E|-----------------------------------------------------------------------------|
  (Here she come) Touching the other side  I wanted to be in love 
e|---------------------------------------------------------------------------|
B|---------------------------------------------------------------------------|
G|--11h12p11h12--12-12-11-9-7-9/11---------12-12-11-9-7-9/11-----------------|
D|---------------------------------------------------------------------------|
A|---------------------------------------------------------------------------|
E|---------------------------------------------------------------------------|
  I wanted to call       (Hey, soon soon)
e|---------------------------------------------------------------------------|
B|---------------------------------------------------------------------------|
G|---12-12-11-9-11------------11--12--11-------------------------------------|
D|-----------------14-------12--12--12---------------------------------------|
A|---------------------------------------------------------------------------|
E|---------------------------------------------------------------------------|
 


 Chorus:
  
  You say come to know yourself... always
e|---------------------------------------------------------------------------|
B|---------------------------------------------------------------------------|
G|-4-4-4-6-6-11-11-11-6-6-6-6-6-6-11-11-11-6-6-6-6-6-6-6-6-6-6-6-------------|
D|-5-5-5-7-7-12-12-12-7-7-7-7-7-7-12-12-12-7-7-7-7-7-7-7-7-7-7-7-------------|
A|-5-5-5-7-7-12-12-12-7-7-7-7-7-7-12-12-12-7-7-7-7-7-7-7-7-7-7-7-------------|
E|-3-3-3-5-5-10-10-10-5-5-5-5-5-5-10-10-10-5-5-5-5-5-5-5-5-5-5-5-------------|

  Don't find yourself in someone else... always
e|---------------------------------------------------------------------------|
B|---------------------------------------------------------------------------|
G|-4-4-4-6-6-11-11-11-6-6-6-6-6-6-11-11-11-6-6-6-6-6-6-6-6-6-6-6-------------|
D|-5-5-5-7-7-12-12-12-7-7-7-7-7-7-12-12-12-7-7-7-7-7-7-7-7-7-7-7-------------|
A|-5-5-5-7-7-12-12-12-7-7-7-7-7-7-12-12-12-7-7-7-7-7-7-7-7-7-7-7-------------|
E|-3-3-3-5-5-10-10-10-5-5-5-5-5-5-10-10-10-5-5-5-5-5-5-5-5-5-5-5-------------|

  And always wear a safety belt... always 
e|---------------------------------------------------------------------------|
B|---------------------------------------------------------------------------|
G|-4-4-4-6-6-11-11-11-6-6-6-6-6-6-11-11-11-6-6-6-6-6-6-6-6-6-6-6-------------|
D|-5-5-5-7-7-12-12-12-7-7-7-7-7-7-12-12-12-7-7-7-7-7-7-7-7-7-7-7-------------|
A|-5-5-5-7-7-12-12-12-7-7-7-7-7-7-12-12-12-7-7-7-7-7-7-7-7-7-7-7-------------|
E|-3-3-3-5-5-10-10-10-5-5-5-5-5-5-10-10-10-5-5-5-5-5-5-5-5-5-5-5-------------|

  Wait for me I'm running late... always
e|---------------------------------------------------------------------------|
B|---------------------------------------------------------------------------|
G|-4-4-4-6-6-11-11-11-6-6-6-6-6-6-11-11-11-6-6-6-6-6-6-6-6-6-6-6-------------|
D|-5-5-5-7-7-12-12-12-7-7-7-7-7-7-12-12-12-7-7-7-7-7-7-7-7-7-7-7-------------|
A|-5-5-5-7-7-12-12-12-7-7-7-7-7-7-12-12-12-7-7-7-7-7-7-7-7-7-7-7-------------|
E|-3-3-3-5-5-10-10-10-5-5-5-5-5-5-10-10-10-5-5-5-5-5-5-5-5-5-5-5-------------|

  This is the moment that we share... for always 
e|---------------------------------------------------------------------------|
B|---------------------------------------------------------------------------|
G|-4-4-4-6-6-11-11-11-6-6-6-6-6-6-11-11-11-6-6-6-6-6-6-6-6-6-6-6-------------|
D|-5-5-5-7-7-12-12-12-7-7-7-7-7-7-12-12-12-7-7-7-7-7-7-7-7-7-7-7-------------|
A|-5-5-5-7-7-12-12-12-7-7-7-7-7-7-12-12-12-7-7-7-7-7-7-7-7-7-7-7-------------|
E|-3-3-3-5-5-10-10-10-5-5-5-5-5-5-10-10-10-5-5-5-5-5-5-5-5-5-5-5-------------|

  Turn each song into a prayer... always
e|---------------------------------------------------------------------------|
B|---------------------------------------------------------------------------|
G|-4-4-4-6-6-11-11-11-6-6-6-6-6-6-11-11-11-6-6-6-6-6-6-6-6-6-6-6-------------|
D|-5-5-5-7-7-12-12-12-7-7-7-7-7-7-12-12-12-7-7-7-7-7-7-7-7-7-7-7-------------|
A|-5-5-5-7-7-12-12-12-7-7-7-7-7-7-12-12-12-7-7-7-7-7-7-7-7-7-7-7-------------|
E|-3-3-3-5-5-10-10-10-5-5-5-5-5-5-10-10-10-5-5-5-5-5-5-5-5-5-5-5-------------|

  Now and forever              For always        
e|---------------------------------------------------------------------------|
B|---------------------------------------------------------------------------|
G|-4-4-4-6-6-11-11-11-6-6-6-6-6-6-11-11-11-6-6-6-6-6-6-6-6-6-6-6-------------|
D|-5-5-5-7-7-12-12-12-7-7-7-7-7-7-12-12-12-7-7-7-7-7-7-7-7-7-7-7-------------|
A|-5-5-5-7-7-12-12-12-7-7-7-7-7-7-12-12-12-7-7-7-7-7-7-7-7-7-7-7-------------|
E|-3-3-3-5-5-10-10-10-5-5-5-5-5-5-10-10-10-5-5-5-5-5-5-5-5-5-5-5-------------|

                                For always
e|---------------------------------------------------------------------------|
B|---------------------------------------------------------------------------|
G|-4-4-4-6-6-11-11-11-6-6-6-6-6-6-11-11-11-6-6-6-6-6-6-6-6-6-6-6-------------|
D|-5-5-5-7-7-12-12-12-7-7-7-7-7-7-12-12-12-7-7-7-7-7-7-7-7-7-7-7-------------|
A|-5-5-5-7-7-12-12-12-7-7-7-7-7-7-12-12-12-7-7-7-7-7-7-7-7-7-7-7-------------|
E|-3-3-3-5-5-10-10-10-5-5-5-5-5-5-10-10-10-5-5-5-5-5-5-5-5-5-5-5-------------|

                                For always 
e|---------------------------------------------------------------------------|
B|---------------------------------------------------------------------------|
G|-4-4-4-6-6-11-11-11-6-6-6-6-6-6-11-11-11-6-6-6-6-6-6-6-6-6-6-6-------------|
D|-5-5-5-7-7-12-12-12-7-7-7-7-7-7-12-12-12-7-7-7-7-7-7-7-7-7-7-7-------------|
A|-5-5-5-7-7-12-12-12-7-7-7-7-7-7-12-12-12-7-7-7-7-7-7-7-7-7-7-7-------------|
E|-3-3-3-5-5-10-10-10-5-5-5-5-5-5-10-10-10-5-5-5-5-5-5-5-5-5-5-5-------------|

Chords:
 
D
Here today 
G
And gone tomorrow 
A          G               D
Crack the bone, get to the marrow 
D
To be the bee 
G
And the flower 
A          G               D
Before the sweetness turns to sour 

G       A    D     A             D   A 
What we have we're gonna keep... always 
G       A    D     A             D   A    
What we've lost we don't need... always 
G       A    D     A                   D   A         
What is it that won't let you sleep... always 

D
Be the arrow 
G
And the target 
A        G          D    
Put your head over the parapet 
D 
Be uncool 
G
Yes, be awkward 
A               G             D
And don't look in the obvious place 
A               G             D
The soul needs beauty for a soul mate 

G       A    D     A             D   A 
Get down off your holy cloud... always 
G       A    D     A             D   A 
God will not deal with the proud... always 
G       A    D     A                     D   A 
Well if you dream then dream out loud... always 
G   A   D     A    D   A 
Eternally yours... always 

A      D    G
I want you  
A      D    G
I want you 
A      D    G  
I want you 

 A         D
(Here she come) 
G               D
Touching the other side 
A          D
I wanted to be in love 
G          D 
I wanted to call 
A          D  
(Hey, soon soon) 

G       A    D     A             D   A 
You say come to know yourself... always 
G       A    D     A             D   A 
Don't find yourself in someone else... always 
G       A    D     A             D   A 
And always wear a safety belt... always 
G       A    D     A             D   A 
Wait for me I'm running late... always 
G       A    D     A                  D   A 
This is the moment that we share... for always 
G       A    D     A             D   A 
Turn each song into a prayer... always 

G   A   D  A 
Now and forever 
D     A    G A D A
For always 
D     A    G A D A
For always 
D     A    G A D A
For always 





Comments


Popular U2 tabs & chords
Fez - Being Born Chords
Stuck In A Moment You Cant Get Out Of 1 Chords
Zooropa Chords
40 Live Tabs
Crumbs From Your Table Tabs
Ms Sarajevo Tabs
Sunday Bloody Sunday 5 Tabs
Walk On 4 Tabs
In Gods Country Ukulele
Original Of The Species Ukulele


Song lyrics



↑ Back to top | Tablatures and chords are parodies/interpretations of the original songs. You may use it for private study, scholarship, research or language learning purposes only
© 2014 AZChords.com Contact us | Privacy policy | DMCA | Add/correct tabs | Request tabs | Top 50 tabs