» » »

All Because Of You Tabs (ver.2)

Artists:  A B C D E F G H I J K L M N O P Q R S T U V W X Y Z # 

All Because Of You Tabs (ver.2)

U2
Rating:
5/5 (8 votes)

Hard to play? Try these video lessons and learn fast.
                Artist-U2
Album-How To Dismantle An Atomic Bomb
Song-All Because of You
I am about 99.9% sure on this tab. I have played it w/ the song several times.

~=let ring
p=pulloff
h=hammeron

Intro,Verse,Post-Chorus (Main Riff)
   E        D    A
e--------------------------------------------------------------|
b-----------7-7------------------------------------------------|
g--1-1-1-1--7-7--6-6-------------------------------------------|
D--2-2-2-2--7-7--7-7-------------------------------------------|
A--2-2-2-2--5-5--7-7-------------------------------------------|
E--0-0-0-0-------5-5-------------------------------------------|
or
   E        D    A
e--------------------------------------------------------------|
b--9-9-9-9--7-7------------------------------------------------|
g--9-9-9-9--7-7--6-6-------------------------------------------|
D--9-9-9-9--7-7--7-7-------------------------------------------|
A--7-7-7-7--5-5--7-7-------------------------------------------|
E----------------5-5-------------------------------------------|
NOTE: I prefer to alternate these two progressions throughout each structure

Intro Riff(Sounds Like it has slight delay of echo on it)
e--12~---12-12-10----10------------10--------------------------|
b-----------------12----12~----12------------------------------|
g--------------------------------------------------------------|
D--------------------------------------------------------------|
A--------------------------------------------------------------|
E--------------------------------------------------------------|


Chorus
   D        A
e--------------------------------------------------------------|
b--7-7-7-7-----------------------------------------------------|
g--7-7-7-7--7-7-7-7--------------------------------------------|
D--7-7-7-7--7-7-7-7--------------------------------------------|
A--5-5-5-5--7-7-7-7--------------------------------------------|
E-----------5-5-5-5--------------------------------------------|

Bridge
e--9-10-9------------|9-9-9h10p9-(x4)--------------------------|
b---------10--8--7---|-----------------------------------------|
g--------------------|-----------------------------------------|
D--------------------|-----------------------------------------|
A--------------------|-----------------------------------------|
E--------------------|-----------------------------------------|


Solo Part 1 (x3)
e--------------------------------------------------------------|
b--------------------------------------------------------------|
g--12~---14-12-14p12----12----12-14/16-16-16-16----------------|
D--------------------14----14----------------------------------|
A--------------------------------------------------------------|
E--------------------------------------------------------------|

Solo Part 2
e--------------------------------------------------------------|
b--12-12-15-15-17-17-19-19-20-20-20-20-------------------------|
g--------------------------------------------------------------|
D--------------------------------------------------------------|
A--------------------------------------------------------------|
E--------------------------------------------------------------|

The End.
            
Hard to play? Try these video lessons and learn fast. | Correct




comments powered by Disqus
↑ Back to top | Tablatures and chords are parodies/interpretations of the original songs. You may use it for private study, scholarship, research or language learning purposes only