» » »

A Day Without Me Bass tabs (ver.1)

Artists:  A B C D E F G H I J K L M N O P Q R S T U V W X Y Z # 

A Day Without Me Bass tabs (ver.1)

U2
Rating:
0/5 (0 votes)

Hard to play? Try these video lessons and learn fast.
                -------------------------------------------------------------------------------
-------------------------------------------------------------------------------


Tuning: Standard (EADG)

Main riff (for verse and chorus)
G|--------------------|
D|--------------------|
A|-4442(x4)--2220(x4)-|
E|--------------------|

Let an 'A' ring as Bono sings 'A day wihout me...'
G|--------------------|
D|--------------------|
A|-0~-----------------|
E|--------------------|

Bridge (if you're playing along to the live version, this is played twice)
G|--------------------|
D|--------------------|
A|-4~--2~--4~--2~-----|
E|--------------------|

Outro
G|-------------------------------------------------------------------------------------------------|
D|-14-14-14-14-14-14-14-14-14-14-14-14-14-14-14-14-------------------------------------------------|
A|-------------------------------------------------14-14-14-14-14-14-14-14-14-14-14-14-14-14-14-14-|
E|-------------------------------------------------------------------------------------------------|

G|-------------------------------------------------------------------------------------------------|
D|-------------------------------------------------------------------------------------------------|
A|-16-16-16-16-16-16-16-16-16-16-16-16-16-16-16-16-14-14-14-12-14-14-14-12-14-14-14-12-14-14-14-12-|
E|-------------------------------------------------------------------------------------------------|

end on 'A'
G|---------------------|
D|---------------------|
A|-0~------------------|
E|---------------------|
            
Hard to play? Try these video lessons and learn fast. | Correct




comments powered by Disqus
↑ Back to top | Tablatures and chords are parodies/interpretations of the original songs. You may use it for private study, scholarship, research or language learning purposes only