>
 >
This Is Beautiful

This Is Beautiful Guitar Tabs

Tyrone Wells - This Is Beautiful chords, tabs, tablatures, lyrics

Guitar lessons | Add/correct | Request | Top 50 tabs Artists:  A B C D E F G H I J K L M N O P Q R S T U V W X Y Z 0-9

This Is Beautiful Guitar Tabs – Tyrone Wells

CD, Sheet music, Poster

Do you like This Is Beautiful? Share with your friends now
Tabs
HavenRock rendition

Chords:

  C        G      Am7      F      G/B
x  o o    ooox  xo o o   x   o  x oo x
======  ======  ======  ======  ======
||||X|  ||||||  ||||x|  x|||x|  ||||||
------  ------  ------  ------  ------
||X|||  |x||||  ||x|||  |||x||  |X||||
------  ------  ------  ------  ------
|X||||  x|||||  ||||||  ||x|||  ||||X|
------  ------  ------  ------  ------
||||||  ||||||  ||||||  ||||||  ||||||
------  ------  ------  ------  ------

These are the simplified chords.  This rendition uses a 
lot of extentions based on these chords.  Scroll down
to the bottom for tabs.
(note: when playing "F" use your thumb to 
finger the bass note instead of
using a bar chord)

CAPO1 (all chords played relative to capo)

Verse1:
C                         G/B    G
Hey get your things it's time to go
C                    G/B    G
You make me glad I'm not alone
Am7                     G/B   G         F     G
In silence we hear the tires upon the road

Verse2:
C                    G/B       G
I turned to you and asked you why
C                    G/B       G
You're so awake you must be tired
Am7                  G/B          G         F      G
You say when we're apart you'll close your eyes

Chorus:
C         G    F
This is beautiful
C         G    F
This is beautiful
C     G   F
Unmistakable
F         G    C
This is beautiful

Verse3:
C                     G/B    G
We spent the day in central park
C                    G/B      G
I wrote my name down on your arm
Am7                    G/B     G
You set off avalanches in my heart

Chorus:
C         G    F
This is beautiful
C         G    F
This is beautiful
C     G   F
Unmistakable
F         G    C
This is beautiful

Bridge:
   F           
I never could have seen
  F                          G
Never could have seen this coming
     F        
The most amazing things
  F                    G
They arrive within a moment
   F                   
I never could have seen
  F                         G     Am7  G/B
Never could have seen this coming on

    F                                         
I never could have seen, 
  F                          G
never could have seen this coming
 F                    
You are here with me, 
 F                    G
I'm alive all of a sudden
  F                  
Anyone can see, 
  F                  G     Am7   G/B
anyone can see it's beautiful

(same progression as Bridge)
You set off avalanches in my heart (x4)

Chorus:
C           G  F
This is beautiful
C           G  F
This is beautiful
C   G    F
Unforgettable
F           G  C
This is beautiful
F           G  C
This is beautiful

now to the fun part:

INTRO:
  C                G/B       G          C                 G/B
|-0-1---0-1---0---|-------0-----------|-0-1---0-1---0---|-------0-----------|
|-1-1---1-1-----1-|-3--------0------0-|-1-1---1-1-----1-|-3--------0------1-|
|-0---0-----0-----|-0---0---------0---|-0---0-----0-----|-0---0---------0---|
|-----------------|-0-0---------0-----|-----------------|-0-0---------0-----|
|-3-------3-------|-2-----------------|-3-------3-------|-2-----------------|
|-----------------|----------3--------|-----------------|----------3--------|
  F                 G
|-----------------|-----------------|
|-1-------1-------|-0---1---3---1---|
|-----0h2-----2---|-0---0---0---0---|
|---3-----------3-|-0-0---0---0---0-|
|-----------------|-----------------|
|-1---------1-----|-3-------3-------|

VERSE: (all the verses follow this pattern)

  C                G/B       G
|-0-1---0-1---0---|-------0-----------|
|-1-1---1-1-----1-|-3--------0------0-|
|-0---0-----0-----|-0---0---------0---|  (x2)
|-----------------|-0-0---------0-----|
|-3-------3-------|-2-----------------|
|-----------------|----------3--------|

   Am7
|-0-1---0-1---0---|-------0-----------|
|-1-1---1-1-----1-|-3--------0------1-|
|-0---0-----0-----|-0---0---------0---|
|-----------------|-0-0---------0-----|
|-0-------0-------|-2-----------------|
|-----------------|----------3--------|

  F                 G
|-----------------|-----------------|
|-1-------1-------|-0---1---3---1---|
|-----0h2-----2---|-0---0---0---0---|
|---3-----------3-|-0-0---0---0---0-|
|-----------------|-----------------|
|-1---------1-----|-3-------3-------|

Chorus:

  C        G         F
|-0----------------|-----------------|
|-1---1---0---1-1--|---------1-------|
|-------0-----0----|-----0h2---2---0-|   (x3)
|---0-------0------|---3---------3---|
|-3----------------|-----------------|
|---------3--------|-1---------------|

  F                   C
|------0------------|-----------0---|
|-1------1--3---1-1-|---------1-1-1-|
|-2---------0-0-----|-------0---0---|
|-3--3------0-------|---0h2-----2---|
|-------------------|-3---------3---|
|-1---------3-------|---------------|

Bridge:
  F                        G
|-3-3---------3-3--------0---------|
|-1---1---1---1---1---1----3---1---|
|-2-----2---2-------2------0-----0-|  (x3)
|--------------------------0-0-----|
|----------------------------------|
|-1-------1---1-------1----3-------|

  Am7           G/B
|-0--------------------0---------|
|-1-----1--------3-------------1-|
|-0---0-----0----0---0-----0-----|
|---2---------2--0-0---------0---|
|-0-------0------2-------2-------|
|--------------------------------|

(note: Some of these parts are repeated.  Use the chords
above the tab as a guide)





Comments


Popular Tyrone Wells tabs & chords
And The Birds Sing Chords
Arms Around Me Chords
Running Around In My Dreams Chords
Running Around In My Dreams 1 Chords
Time Of Our Lives 1 Chords
When All Is Said And Done 1 Chords
Wondering Where You Are 1 Chords
Arms Around Me Ukulele
Baby Dont You Change Ukulele
Youre The One Ukulele


Song lyrics



↑ Back to top | Tablatures and chords are parodies/interpretations of the original songs. You may use it for private study, scholarship, research or language learning purposes only
© 2014 AZChords.com Contact us | Privacy policy | DMCA | Add/correct tabs | Request tabs | Top 50 tabs