» » »

Tyrone Wells, Stronger Tabs (ver.1)

Artists:  A B C D E F G H I J K L M N O P Q R S T U V W X Y Z # 

Stronger Tabs (ver.1)

Tyrone Wells Tabs
Rating:
5/5 (3 votes)
Hard to play? Try these video lessons and learn fast.
                ----------------------------------------------------------------------------
----------------------------------------------------------------------------

Tuning: Standard

INTRO:

e|-----3----3-------3----3--3------3----3-------3----3--3------3-----3-----|
B|-----3----3-------3----3--3------3----3-------3----3--3------3-----3-----|
G|-----0----0-------0----0--0------0----0-------0----0--0------0-----0-----|
D|-------------------------------------------------------------------------|
A|--3-----3---x-2-----2--------x-3----3-----x-2----2-------x-3-----3-------|
E|-------------------------------------------------------------------------|
                                                                            
e|-------3---3--3---------3--------3----3-|
B|-------3---3--3---------3--------3----3-|
G|-------0---0--0------0--------0-------2-|
D|--------------------------------------2-|
A|--x-2----2------x-3--------2----------0-|
E|----------------------------------------|


VERSE: x2
e|-----3----3-------3----3--3------3----3-------3----3--3------3-----3-----|
B|-----3----3-------3----3--3------3----3-------3----3--3------3-----3-----|
G|-----0----0-------0----0--0------0----0-------0----0--0------0-----0-----|
D|-------------------------------------------------------------------------|
A|--3-----3---x-2-----2--------x-3----3-----x-2----2-------x-3-----3-------|
E|-------------------------------------------------------------------------|
                                              Play again after 2nd:        
e|-------3---3--3---------3--------3----3----|-------3--------3----3-------|
B|-------3---3--3---------3--------3----3----|-------3--------3----3-------|
G|-------0---0--0------0--------0-------2----|----0--------0-------2-------|
D|--------------------------------------2----|---------------------2-------|
A|--x-2----2------x-3--------2----------0----|-3--------2----------0-------|
E|-------------------------------------------|-----------------------------|


CHORUS:   |Em           D           C           C| x2
          |Em           D(let ring)        Riff A|



chords:                   

  Em    D    C                  End of chorus: (Riff A)
e|-7----5----3----3-|                 |-------3--------3----3-------|
B|-8----7----5----3-|                 |-------3--------3----3-------|
G|-9----7----5----4-|                 |----0--------0-------2-------|
D|-9----7----5----5-|                 |---------------------2-------|
A|-7----5----3----5-|                 |-3--------2----------0-------|
E|----------------3-|                 |-----------------------------|


VERSE x1

e|-----3----3-------3----3--3------3----3-------3----3--3------3-----3-----|
B|-----3----3-------3----3--3------3----3-------3----3--3------3-----3-----|
G|-----0----0-------0----0--0------0----0-------0----0--0------0-----0-----|
D|-------------------------------------------------------------------------|
A|--3-----3---x-2-----2--------x-3----3-----x-2----2-------x-3-----3-------|
E|-------------------------------------------------------------------------|
                                                                           
e|-------3---3--3---------3--------3----3-----------3--------3----3--------|
B|-------3---3--3---------3--------3----3-----------3--------3----3--------|
G|-------0---0--0------0--------0-------2--------0--------0-------2--------|
D|--------------------------------------2-------------------------2--------|
A|--x-2----2------x-3--------2----------0-----3--------2----------0--------|
E|-------------------------------------------------------------------------|


CHORUS:   |Em           D           C           G| x2
          |Em           D           C      Riff A|


BRIDGE:   |Bm           C           Bm          C| x2
          |Bm           C           Bm     A    G|


CHORUS:   |Em           D           C           G| x4
          |Em           D           To Verse     |     (Quick transition
                                                        into verse)
VERSE x1

CHORUS:   |Em           D           C           G| x7
          |Em           D           Riff A       |
            

comments powered by Disqus
↑ Back to top | Tyrone Wells Tabs for Stronger. Lyrics for acoustic guitar and electric guitar. Tablatures and chords are parodies/interpretations of the original songs. You may use it for private study, scholarship, research or language learning purposes only