>
 >
Seabreeze

Seabreeze Guitar Tabs

Tyrone Wells - Seabreeze chords, tabs, tablatures, lyrics

Guitar lessons | Add/correct | Request | Top 50 tabs Artists:  A B C D E F G H I J K L M N O P Q R S T U V W X Y Z 0-9

Seabreeze Guitar Tabs – Tyrone Wells

CD, Sheet music, Poster

Do you like Seabreeze? Share with your friends now
ChordsChords v2Chords v3Chords v4Chords v5TabsUkulele
----------------------------------------------------------------------------
                             SEA BREEZE - Tyrone Wells
----------------------------------------------------------------------------

Tuning: Guitar 1: Standard - Intro, Riff, Solo-----------(No Capo)
        Guitar 2: Standard - Verse, Chorus, All Chords---(Capo 4)

Chords Played: (Capo 4)

       G    C9    Em     D    D/F#  Am7   G/B    C
e:-----3-----3-----3-----2-----3-----0-----3-----0
B:-----3-----3-----3-----3-----3-----1-----3-----1
G:-----0-----0-----0-----2-----0-----0-----0-----0
D:-----0-----2-----2-----0-----0-----2-----0-----2
A:-----2-----3-----2-----x-----0-----0-----2-----3
E:-----3-----x-----0-----x-----2-----x-----x-----x


Intro:  
 G      C9     Em    D
  G      C9     D/F#  G 


Verse:  
 G      D      G     C9     
         Am7    G/B    C9    D

         
Chorus:  
G      C9     Em    D/F#
          Am7    G/B    C    D
          G      C9     Em    D/F#
          Am7  G/B   D/F#   G


Riff:  
  G      C9     Em    D
         G      C9     D/F#  G       


Bridge: 
 Em     C9     G     D/F#
         Am7    C      D/F#  D/F#  


Solo:   
 G      C9     Em    D/F#
         Am7    G/B    D/F#  G


Outro: 
  G      C9     Em    D
         G      C9     D/F#  G


     ORDER:
      -Intro
      -Verse
      -Chorus
      -Riff
      -Verse
      -Chorus
      -Bridge
      -Chorus
      -Solo
      -Chorus
      -Outro

Intro: 

e|-----9---9--7~~~---------------------------------------------------------|
B|-7/9---9----------------9-----9--7~~~-----7--4----5/7-----7----7--7--7---|
G|-------------------6/8-----8--------------------6---------8p6--6--6--8---|
D|-------------------------------------------------------------------------|
A|-------------------------------------------------------------------------|
E|-------------------------------------------------------------------------|


Riff: (same as intro)

e|-----9---9--7~~~---------------------------------------------------------|
B|-7/9---9----------------9-----9--7~~~-----7--4----5/7-----7----7--7--7---|
G|-------------------6/8-----8--------------------6---------8p6--6--6--8---|
D|-------------------------------------------------------------------------|
A|-------------------------------------------------------------------------|
E|-------------------------------------------------------------------------|


Guitar Solo:
                                                 1/4
e|------7-7~~~------7~~~-----7---------------------------------------------|
B|--7h9---------9p7------7h9------------------------------------12-12~~~---|
G|-----------------------------------------------------11-11/13------------|
D|--------------------------------11/13-11~---11^-/13----------------------|
A|-------------------------------------------------------------------------|
E|-------------------------------------------------------------------------|
    full        1/2
e|-----------------------11-12-12/14----14----14-14---14-12--------12------|
B|--14^-14-12-15^-14~~~--12-14-14/16-16-16----16-16---16-14--------14------|
G|-------------------------------------------------------------------------|
D|-------------------------------------------------------------------------|
A|-------------------------------------------------------------------------|
E|-------------------------------------------------------------------------|

e|-------------------------------------------------------------------------|
B|-12-12h14-14h16-16p14-14p12-12~~~--11------------------------------------|
G|-----------------------------------11---11/13-11-------------------------|
D|-------------------------------------------------11/13-11-9h11-9~~~------|
A|-------------------------------------------------------------------------|
E|-------------------------------------------------------------------------|





Comments


Popular Tyrone Wells tabs & chords
Before It Started Chords
God Would You Help Us Chords
Metal Wood Chords
More 1 Chords
Need 1 Chords
Patience Chords
Running Around In My Dreams 2 Chords
Sink Or Swim Chords
Time Of Our Lives Chords
Running Around In My Dreams Ukulele


Song lyrics



↑ Back to top | Tablatures and chords are parodies/interpretations of the original songs. You may use it for private study, scholarship, research or language learning purposes only
© 2014 AZChords.com Contact us | Privacy policy | DMCA | Add/correct tabs | Request tabs | Top 50 tabs