» » »

Falling Tabs (ver.1)

Artists:  A B C D E F G H I J K L M N O P Q R S T U V W X Y Z # 

Falling Tabs (ver.1)

Tyrone Wells
Rating:
0/5 (0 votes)

Hard to play? Try these video lessons and learn fast.
                This is just an outline of the song.

First time attempting a proper tab so I just left out the timing and other things, basic 
structure so just use what's here and play along with the song.

It's dead simple.

First Verse:
e-------------|
B-------------|
G--7----------|
D--7-x8-5-----|
A--5----5-x8--|
E-------3-----|

Pre-Chorus:
e--------17----17/19-17-15-14----------17-----------|
B--14-15----15-------------------14-15----15----15--|
G--------------------------------------------16-----|
D---------------------------------------------------|
A---------------------------------------------------|
E---------------------------------------------------|

Chorus: (Listen to song for strumming)
e----------------------|
B----------------------|
G--7--7--7-------------|
D--7--7--7---5--5--5---|
A--5--4--5---5--5--5---|
E------------3--3--3---|

End of Chorus:
e--17-15-14--------17-15-14--------17-15-14------------------|
B-----------17-15-----------17-15-----------17-15--14-15-----|
G--------------------------------------------------------16--|
D------------------------------------------------------------|
A------------------------------------------------------------|
E------------------------------------------------------------|

Verse:
e-------------|
B-------------|
G--7----------|
D--7-x8-5-----|
A--5----5-x8--|
E-------3-----|

Pre-Chorus:
e--------17----17/19-17-15-14----------17-----------|
B--14-15----15-------------------14-15----15----15--|
G--------------------------------------------16-----|
D---------------------------------------------------|
A---------------------------------------------------|
E---------------------------------------------------|

Chorus: (Listen to song for strumming)
e----------------------|
B----------------------|
G--7--7--7-------------|
D--7--7--7---5--5--5---|
A--5--4--5---5--5--5---|
E------------3--3--3---|

Bridge: (Listen to song for strumming)
e-------------------------|
B-------------------------|
G--7--7--7-----7----------|
D--7--7--7--5--7--2---5---|
A--5--4--5--5--5--2---5---|
E-----------3-----0-2-3---|

Chorus: (No guitar)

Chorus: (Listen to song for strumming)
e----------------------|
B----------------------|
G--7--7--7-------------|
D--7--7--7---5--5--5---|
A--5--4--5---5--5--5---|
E------------3--3--3---|

Outro: (Listen to song for strumming)
e-------------------------|
B-------------------------|
G--7--7--7-----7----------|
D--7--7--7--5--7--2---5---|
A--5--4--5--5--5--2---5---|
E-----------3-----0-2-3---|
            
Hard to play? Try these video lessons and learn fast. | Correct




comments powered by Disqus
↑ Back to top | Tablatures and chords are parodies/interpretations of the original songs. You may use it for private study, scholarship, research or language learning purposes only