» » »

Tyrone Wells, All I Can Do Tabs (ver.1)

Artists:  A B C D E F G H I J K L M N O P Q R S T U V W X Y Z # 

All I Can Do Tabs (ver.1)

Tyrone Wells Tabs
Rating:
4/5 (1 vote)
All I Can Do lessons Tabs too difficult? Try these video lessons and learn fast
                
Standard Tuning (e b G D A E)
No Capo

Visit to setup your home recording studio today!

Intro/Verse (Repeat 2x)

e |-----------------2----------------0------------------3--|
b |---0----------------3---3--------------3-----0h1--------|
G |---------------------------0---0----0-----0-------0-----|
D |-----2---2---2---0-----------0--------------------------|
A |---------------------------------------------3----------|
E |---0---0---0------------3-------------------------------|

e |--------------------------------------------|
b |------------0-----1-------------------------|
G |--0-----0------0------0-----0-----0-----0---|
D |--------------------------------------------|
A |-----3------3-----3------3-----3-----3------|
E |--------------------------------------------|

Pre-Chorus (Repeat 2x)

e |----------------------------------0------------|
b |--3---------3---------3-----------------3------|
G |--------------0---0------2-----2-----2------2--|
D |----0---0-------------0-----0-----0-----0------|
A |------------3---3------------------------------|
E |--3---3----------------------------------------|

Chorus:

e |---------------------------------------------|
b |--3----------1----------3----------1---------|
G |----------------0---0-----------------0---0--|
D |-----0---0-----------------0---0-------------|
A |-------------3----3----------------3----3----|
E |--3----3----------------3----3---------------|

e |--3-------------------------------0h2--------|
b |-------------1----------3--------------------|
G |----------------0---0------2---2------2---2--|
D |-----0---0--------------0----0----0-----0----|
A |-------------3----3--------------------------|
E |--3----3-------------------------------------|

e |---------------------------------------------|
b |--3----------1----------3----------1---------|
G |----------------0---0-----------------0---0--|
D |-----0---0-----------------0---0-------------|
A |-------------3----3----------------3----3----|
E |--3----3----------------3----3---------------|

e |---------------------------------------------|
b |--1----------3----------1----------3---------|
G |----------------2---0-----------------2---2--|
D |-----0---0---0----0--------0---0---0----0----|
A |--3----3----------------3----3---------------|
E |---------------------------------------------|

e |-----------------------|
b |--1----------3---------|
G |----------------2---0--|  Back to Intro/Verse Progression
D |-----0---0---0----0----|
A |--3----3---------------|
E |-----------------------|

Another Day slips away
and i get this feeling that nothing has changed
but these years keep coming like waves
they wash over me day after day

i just watch them rolling by
standing here beneath the sky

and i cant hold the hands of time
they will move like they will move
but i can hold your hand in mine
give my time and give my heart
its all that i can do

another night is flying by
somebody's born, somebody dies
i wanna look deep in your eyes
i wanna live and i want to cry

and i cant hold the hands of time
they will move like they will move
but i can hold your hand in mine
give my time and give my heart
its all that i can do

ill just watch it rolling by
here with you beneath the sky

and i cant hold the hands of time
they will move like they will move
but i can hold your hand in mine
give my time and give my heart
its all that i can do Oh

Take my time
Take my heart
Cause they belong to you
It's all that I can do
            

comments powered by Disqus
↑ Back to top | Tyrone Wells Tabs for All I Can Do. Lyrics for acoustic guitar and electric guitar. Tablatures and chords are parodies/interpretations of the original songs. You may use it for private study, scholarship, research or language learning purposes only