>
 >
We Hate Everyone

We Hate Everyone Guitar Tabs

Type O Negative - We Hate Everyone chords, tabs, tablatures, lyrics

Guitar lessons | Add/correct | Request | Top 50 tabs Artists:  A B C D E F G H I J K L M N O P Q R S T U V W X Y Z 0-9

We Hate Everyone Guitar Tabs – Type O Negative

CD, Sheet music, Poster

Do you like We Hate Everyone? Share with your friends now
Tabs
Tune guitar 2.5 steps below standard;
low to high B, E, A, D, F#, B

  Whoa Whoa Whoa Whoa...                     (play 4 times)
|----------------------------------------------------------|
|----------------------------------------------------------|
|----------------------------------------------------------|
|--9-XX----9-9-9--7-7-6-6-4-2---9-XX----9-9-9--7--6--4--2--|
|--7-XX-9--7-7-7--5-5-4-4-2-0---7-XX-9--7-7-7--5--4--2--0--|
|-------7----------------------------7---------------------|

 We dont care   what you think...               
|----------------------------------------------------------|
|----------------------------------------------------------|
|-----------------7--9-----------------------7--7/9--------|
|--7-----5--------5--7--7---7-7-----9--------5--5/7-9-7-7--|
|--5--7--7--/15\--------5---5-5--7--7--/15\---------7-5-5--|
|-----5--------------------------5-------------------------|

  Lies and slander in vain...
  Riots, protests, violence...
  TV interviews, free publicity...
  Increase record sales...
|----------------------------------|-------------------|
|----------------------------------|-------------------|
|----------------------------------|--6----------------|
|--6-6-6-6-6-6-6-6-6-6-6-6-6-6-6-6-|--4---6---9--5--4--|
|--4-4-4-4-4-4-4-4-4-4-4-4-4-4-4-4-|------4---7--3--2--|
|----------------------------------|-------------------|

        pm.   pm.   pm.          (let ring)
|-------------------------------|-------------------------|
|-------------------------------|-------------------------|
|-----9-----8-----6-----4---4-6-|---6----6---6---6--4--6--|
|--6----6-6---6-6---6-6---6-----|-4----4---4-----4--2--4--|
|-------------------------------|-------------------------|
|-------------------------------|-------------------------|

The left                    They say I'm a fascist...
|-------------------------------------------------------------------|
|-------------------------------------------------------------------|
|------6-----6-----6-----6-----6-------4-----4---4-----4------4---4-|
|------6-----4-----6-----4-----6-------4-----4---4-----4------4---4-|
|--4-4---4-4---4-4---4-4---4-4---0-2-2---2-2---2--------------------|
|--------------------------------------------------2-2----2-2---2---|

      pm     pm     pm        pm     pm     pm  
|-----------------------------------------------------|
|-----------------------------------------------------|
|-----------------------------------------------------|
|--7------7------7------7--9------9------9------9-----|
|--7--7-7-7--7-7-7--7-7-7--9--9-9-9--9-9-9--9-9-9--6--|
|--5--5-5-5--5-5-5--5-5-5--7--7-7-7--7-7-7--7-7-7--4--|

(end riff)           random feedback till end
|------------------------|
|------------------------|
|------------------------|
|------------------------|
|--6--7--9--7---9--6--X--|
|------------------------|





Comments


Popular Type O Negative tabs & chords
All Hallows Eve Bass Tabs
Angel Chords
A Dish Best Served Coldly Tabs
Angry Inch Tabs
Blood And Fire Tabs
Dream Is Dead Tabs
Kill All The White People Tabs
Less Than 0 Tabs
Thir13teen Tabs
Thirteen Tabs


Song lyrics



↑ Back to top | Tablatures and chords are parodies/interpretations of the original songs. You may use it for private study, scholarship, research or language learning purposes only
© 2014 AZChords.com Contact us | Privacy policy | DMCA | Add/correct tabs | Request tabs | Top 50 tabs