» » »

Too Late Frozen Tabs (ver.1)

Artists:  A B C D E F G H I J K L M N O P Q R S T U V W X Y Z # 

Too Late Frozen Tabs (ver.1)

Type O Negative
Rating:
0/5 (0 votes)

Hard to play? Try these video lessons and learn fast.
                Tune all guitars 2.5 steps below standard
Low to high: B, E, A, D, F#, B

    (Distorted bass arranged for guitar)
b ||--------------------------------||
F#||--------------------------------||
D ||--------------------------------||
A ||--/9--9---8--8---7--7---6-------||
E ||--------9------9------9---7-5-7-||
B ||--------------------------------||

Guitar with heavy dist.
"It's too late..."                                      "1, 2, 3, 4!"
                              (3 times)             (4th time)
||----------------------17--17--19--19-|--------------------||
||------17--17--19--19-----------------|-17--17--19--19-----||
||-(9)------------------14--14--16--16-|-----------------14-||
||------14--14--16--16-----------------|-14--14--16--16-----||
||-------------------------------------|--------------------||
||-------------------------------------|--------------------||

"So you've come to say, you're very sorry."
"Was every thing we had just a joke?"
                                   (7 times)
    pm....|      pm...................|
||-------------------------------------||
||-------------------------------------||
||----------9/11-11-11---------9-8-9-8-||
||--9-9-9-9-7/-9--9--9-6-7-6-7-7-6-7-6-||
||--7-7-7-7------------4-5-4-5---------||
||-------------------------------------||

   "Bleeding..."                            "Because of you."
   "Screaming..."                           "Because of you."
    pm.......................................|
||-------------------------------------------------------------||
||-------------------------------------------------------------||
||----------9/11-11-11--------------------------2-4-7----------||
||--9-9-9-9-7/-9--9--9-7-6-7-6-7-6-7-6-7-6-7-6--2-4-7--9-8-7-6-||
||--7-7-7-7------------5-4-5-4-5-4-5-4-5-4-5-4--0-2-5--7-6-5-4-||
||--------------------------------------------------5----------||

        "Aahh..."
||---------------||
||---------------||
||---------------||
||---------------||
||----5-7-8--(8)-||
||--7------------||


"It's too late..."                                 "Too late for appologies"
                              (3 times)             (4th time)
||----------------------17--17--19--19-|--------------------||
||------17--17--19--19-----------------|-17--17--19--19-----||
||-(9)------------------14--14--16--16-|-----------------14-||
||------14--14--16--16-----------------|-14--14--16--16-----||
||-------------------------------------|--------------------||
||-------------------------------------|--------------------||

Bridge (play 8 times total; background chants 5th thru 8th times)
(Guitar has lots of distortion, chorus, and some type of flanger)
             (3 times)                 (4th time) 
||--------------------|-------------------------||
||--------------------|-------------------------||
||-11-11-11--9/14--13-|-------------------------||
||-11-11-11--9/14--13-|-11-11-11--9/12--13--12--||
||--9--9--9--7/12--11-|--9--9--9--7/12--11--12--||
||--------------------|-------------------------||

"In the shadow of the light..."  "...black sun ah"
"Frigid statue standing..."                         "...and numb ah"
"Where are the frost..."        "...protection ah"
"I'm freezing..."
"Frozen, frozen..."               (1,3,5,7th times)   (2,4,6,8th times)
||-----------------------------||------------------||----------------||
||-----------------------------||------------------||----------------||
||-----------------------------||------------------||----------------||
||-----------------------------||-9-8-9-8-9-8-9-11-||----------------||
||-11-11-11-11-9-9-9-9-7-7-7-7-||-7-6-7-6-7-6-7--9-||-7-6-7-6-7-9--9-||
||--9--9--9--9-7-7-7-7-5-5-5-5-||------------------||-5-4-5-4-5-7--7-||


 (Distorted bass arranged for guitar)
||--------------------------------||
||--------------------------------||
||--------------------------------||
||--/9--9---8--8---7--7---6-------||
||--------9------9------9---7-5-7-||
||--------------------------------||


Outro/Guitar Solo

||---------------------12--(12)-/19-17-16-17-16----16----------------|
||------10-12----12-10--------------------------17----17-15-17-------|
||-9-11--------9-----------------------------------------------16-14-|
||-------------------------------------------------------------------|
||-------------------------------------------------------------------|
||-------------------------------------------------------------------|

|-------------------------------------------------------------------||
|--------------------------------------------------------------(17)-||
|-13--14--13--14--13h14p13h14p13h14p13h14p13h14p13h14p13------------||
|--------------------------------------------------------14----(14)-||
|-------------------------------------------------------------------||
|-------------------------------------------------------------------||

"5,6,7,8!"
||----------------------------------------------------------------12-||
||----/9--9-9-7--7-7-5--5-5-5-/9-6-5-5--/9--9-9-7--7-5-5-5-9--7-5----||
||-----------------------------------------------------------------9-||
||----/6--6-6-4--4-4-2--0-0-2-/6-4-0-2--/6--6-6-4--4-2-0-2-6--4-2----||
||-------------------------------------------------------------------||
||-------------------------------------------------------------------||


"It's too late..."                                 "Too late for appologies"
      "(Too late)..."                             "(Too late for appologies 
                                                                     uh uh!"                                    
                              (3 times)             (4th time)
||----------------------17--17--19--19-|--------------------||
||------17--17--19--19-----------------|-17--17--19--19-----||
||-(9)------------------14--14--16--16-|-----------------14-||
||------14--14--16--16-----------------|-14--14--16--16-----||
||-------------------------------------|--------------------||
||-------------------------------------|--------------------||
            
Hard to play? Try these video lessons and learn fast. | Correct




comments powered by Disqus
↑ Back to top | Tablatures and chords are parodies/interpretations of the original songs. You may use it for private study, scholarship, research or language learning purposes only