>
 >
Some Stupid Tomorrow

Some Stupid Tomorrow Bass Tabs

Type O Negative - Some Stupid Tomorrow chords, tabs, tablatures, lyrics

Guitar lessons | Add/correct | Request | Top 50 tabs Artists:  A B C D E F G H I J K L M N O P Q R S T U V W X Y Z 0-9

Some Stupid Tomorrow Bass Tabs – Type O Negative

CD, Sheet music, Poster

Do you like Some Stupid Tomorrow? Share with your friends now
Bass TabsTabsTabs v2

SOME STUPID TOMORROW (Bassline)
As recorded by Type O Negative
(From the 2007 Album DEAD AGAIN)

	

Words and Music by Type O Negative
Arranged by Type O Negative

Gtr I (B E A D) - 'Bass (Distorted)'
Gtr II (B E A D) - 'Bass (Chorus Effect, for MIDI only)'

 Intro
  Q=74
 4/4
  Gtrs I, II
  Wx8
|--------|
|--------|
|--------|
|--------|


    H    Q  Q    H    Q  Q    H    Q  Q    Q.   Q.   Q
||-------------|------------|------------|--------------|
||o------------|------------|------------|--------------|
||o------------|------5--4--|-5----------|--------------|
||--0----3--2--|-3----------|------5--4--|-5----6----7--|


                                PM--------------------------|
  Q.   Q.   Q    Q.   Q.   Q    E E E E E E E E   E E E E E E Q
|--------------|--------------|-----------------|-------------------||
|--------------|--------------|-----------------|------------------o||
|--------------|--------------|-----------------|------------------o||
|-8----7----6--|-5----4----3--|-2-2-3-3-4-4-5-5-|-6-6-7-7-8-8-7\----||


 Pre-Verse
  Q=184
   E  Q   E  E  Q   E    E  Q   E  E  Q   E
|-----------14-14--14-|-----------14-14--14-|
|---------------------|---------------------|
|-12-12--12-----------|-12-12--12-----------|
|---------------------|---------------------|


                         |--3--|
   E  Q   E  E  Q   E    Q  Q  Q  Q  Q
|-----------14-14--14-|------------------|
|---------------------|------------------|
|-12-12--12-----------|------------------|
|---------------------|-13-12-11-10--9\--|


   E  Q   E  E  Q   E    E  Q   E  E  Q   E
|-----------14-14--14-|-----------14-14--14-|
|---------------------|---------------------|
|-12-12--12-----------|-12-12--12-----------|
|---------------------|---------------------|


                         |--3--|
   E  Q   E  E  Q   E    Q  Q  Q  q  Q
|-----------14-14--14-|-------------------||
|---------------------|-------------------||
|-12-12--12-----------|-------------------||
|---------------------|-13-12-11-10--5\---||


 Verse
                                                  |-3-|
  E Q  E E Q  E   E Q  E E Q  E   E Q  E E Q  E   Q Q Q q  Q
|---------------|---------------|---------------|---------------|
|--------7-7--7-|--------7-7--7-|--------7-7--7-|---------------|
|-0-0--0--------|-0-0--0--------|-0-0--0--------|-8-7-6-5--4\---|
|---------------|---------------|---------------|---------------|


                                                  |-3-|
  E Q  E E Q  E   E Q  E E Q  E   E Q  E E Q  E   Q Q Q q  Q
|---------------|---------------|---------------|--------------||
|--------7-7--7-|--------7-7--7-|--------7-7--7-|--------------||
|-0-0--0--------|-0-0--0--------|-0-0--0--------|-8-7-6-5------||
|---------------|---------------|---------------|--------------||


 Chorus
          PM|         PM|           PM|
  E  a  E E E E  a  E E E   E  a  E E E E  a  Q.
|-------------------------|-------------9-(9)s8----|
|-------------------------|------------------------|
|-5-(5)s7-----5-(5)s7-----|-5-(5)s7----------------|
|---------0-0---------0-0-|---------0-0------------|


          PM|         PM|           PM--|
  S +S  E E E S +S  E E E   E  a  E E E E Q.
|-------------------------|---------------------|
|-------------------------|---------------------|
|-5-(5)s7-----5-(5)s7-----|-5-(5)s7-------5-----|
|---------0-0---------0-0-|---------0-0-6-------|


          PM|         PM|           PM|
  E  a  E E E E  a  E E E   E  a  E E E E  a  Q.
|-------------------------|-------------9-(9)s8----|
|-------------------------|------------------------|
|-5-(5)s7-----5-(5)s7-----|-5-(5)s7----------------|
|---------0-0---------0-0-|---------0-0------------|


          PM|         PM----|      PM
  S +S  E E E S +S  E E E   E Q.   E Q.
|-------------------------|---------------||
|-------------------------|---------------||
|-5-(5)s7-----5-(5)s7-----|---5------5----||
|---------0-0---------0-0-|-6------6------||


 Pre-Verse
                                           |--3--|
  q  H.        W          H    E  Q.       Q  Q  Q  Q  Q
|------------|----------|---------------|-------------------|
|------------|----------|--------(7)\---|-------------------|
|------------|----------|--------(7)\---|-------------------|
|-5----------|----------|---------------|-13-12-11-10--9\---|


                                       |-3-|
  W          +W           +W           Q Q Q q  Q
|----------|------------|------------|---------------||
|----------|------------|------------|---------------||
|----------|------------|------------|-8-7-6-5-------||
|-5--------|-(5)--------|-(5)--------|----------5\---||


 Verse
                                                  |-3-|
  E Q  E E Q  E   E Q  E E Q  E   E Q  E E Q  E   Q Q Q q  Q
|---------------|---------------|---------------|---------------|
|--------7-7--7-|--------7-7--7-|--------7-7--7-|---------------|
|-0-0--0--------|-0-0--0--------|-0-0--0--------|-8-7-6-5--4\---|
|---------------|---------------|---------------|---------------|


                                                  |-3-|
  E Q  E E Q  E   E Q  E E Q  E   E Q  E E Q  E   Q Q Q q  Q
|---------------|---------------|---------------|--------------||
|--------7-7--7-|--------7-7--7-|--------7-7--7-|--------------||
|-0-0--0--------|-0-0--0--------|-0-0--0--------|-8-7-6-5------||
|---------------|---------------|---------------|--------------||


 Chorus
          PM|         PM|           PM|
  E  a  E E E E  a  E E E   E  a  E E E E  a  Q.
|-------------------------|-------------9-(9)s8----|
|-------------------------|------------------------|
|-5-(5)s7-----5-(5)s7-----|-5-(5)s7----------------|
|---------0-0---------0-0-|---------0-0------------|


          PM|         PM|           PM--|    PM
  S +S  E E E S +S  E E E   E  a  E E E E Q  E
|-------------------------|----------------------|
|-------------------------|----------------------|
|-5-(5)s7-----5-(5)s7-----|-5-(5)s7-------5------|
|---------0-0---------0-0-|---------0-0-6----6---|


          PM|         PM|           PM|
  E  a  E E E E  a  E E E   E  a  E E E E  a  Q.
|-------------------------|-------------9-(9)s8----|
|-------------------------|------------------------|
|-5-(5)s7-----5-(5)s7-----|-5-(5)s7----------------|
|---------0-0---------0-0-|---------0-0------------|


          PM|         PM----|      PM
  S +S  E E E S +S  E E E   E Q.   E Q.
|-------------------------|---------------||
|-------------------------|---------------||
|-5-(5)s7-----5-(5)s7-----|---5------5\---||
|---------0-0---------0-0-|-6------6------||


   "Some...Stupid Tomorrow"
    Q=131
    E E E E E E E  E    E  E  E  E  E  E  E  E
||-------------------|-------------------------|
||o------------------|-------------------------|
||o-4-4-4-4-4-4-4s14-|-14-14-14-14-14-14-14----|
||-------------------|----------------------14-|


   E  E  E  E  E  E  E  E    E  E  E  E  E  E  E E
|-------------------------|-------------------------||
|-------------------------|------------------------o||
|----------------------12-|-12-12-12-12-12-12-12s4-o||
|-14-14-14-14-14-14-14----|-------------------------||


    Q=133
    E E E E E E E  E    E  E  E  E  E  E  E  E
||-------------------|-------------------------|
||o------------------|-------------------------|
||o-4-4-4-4-4-4-4s14-|-14-14-14-14-14-14-14----|
||-------------------|----------------------14-|


   E  E  E  E  E  E  E  E    E  E  E  E  E  E  E E
|-------------------------|------------------------|
|-------------------------|------------------------|
|----------------------12-|-12-12-12-12-12-12-12s4-|
|-14-14-14-14-14-14-14----|------------------------|


  E E E E E E E  E    E  E  E  E  E  E  E  E
|------------------|-------------------------|
|------------------|-------------------------|
|-4-4-4-4-4-4-4s14-|-14-14-14-14-14-14-14----|
|------------------|----------------------14-|


   E  E  E  E  E  E  E  E    E  E  E  E  E  E  E E
|-------------------------|-------------------------||
|-------------------------|-------------------------||
|----------------------12-|-12-12-12-12-12-12-12s4--||
|-14-14-14-14-14-14-14----|-------------------------||


 "Yesterday..."
  E E E E E E E E   E E E E E E E E   E E E E E E E E   E E E E E E E E
|-----------------|-4-4-4-4-4-4-4-4-|-----------------|-2-2-2-2-2-2-2-2--|
|-----------------|-----------------|-4-4-4-4-4-4-4-4-|------------------|
|-4-4-4-4-4-4-4-4-|-----------------|-----------------|------------------|
|-----------------|-----------------|-----------------|------------------|


                                                  H=H                 Q=148
  E E E E E E E E   E E E E E E E E   E E E E E E E E   E E E E E E E E
|-----------------|-4-4-4-4-4-4-4-4-|-----------------|-2-2-2-2-2-2-2-2---||
|-----------------|-----------------|-4-4-4-4-4-4-4-4-|------------------o||
|-4-4-4-4-4-4-4-4-|-----------------|-----------------|------------------o||
|-----------------|-----------------|-----------------|-------------------||


   Outro
    Q=74
    H    Q  Q    H    Q  Q    H    Q  Q    Q.   Q.   Q
||-------------|------------|------------|--------------|
||o------------|------------|------------|--------------|
||o------------|------5--4--|-5----------|--------------|
||--0----3--2--|-3----------|------5--4--|-5----6----7--|


                                PM--------------------------|
  Q.   Q.   Q    Q.   Q.   Q    E E E E E E E E   E E E E E E Q
|--------------|--------------|-----------------|-------------------||
|--------------|--------------|-----------------|------------------o||
|--------------|--------------|-----------------|------------------o||
|-8----7----6--|-5----4----3--|-2-2-3-3-4-4-5-5-|-6-6-7-7-8-8-7\----||


  Q=184
   E  Q   E  E  Q   E    E  Q   E  E  Q   E
|-----------14-14--14-|-----------14-14--14-|
|---------------------|---------------------|
|-12-12--12-----------|-12-12--12-----------|
|---------------------|---------------------|


                         |--3--|
   E  Q   E  E  Q   E    Q  Q  Q  Q  Q
|-----------14-14--14-|------------------|
|---------------------|------------------|
|-12-12--12-----------|------------------|
|---------------------|-13-12-11-10--9\--|


   E  Q   E  E  Q   E    E  Q   E  E  Q   E
|-----------14-14--14-|-----------14-14--14-|
|---------------------|---------------------|
|-12-12--12-----------|-12-12--12-----------|
|---------------------|---------------------|


                         |--3--|
   E  Q   E  E  Q   E    Q  Q  Q  q  Q
|-----------14-14--14-|-------------------*|
|---------------------|-------------------*|
|-12-12--12-----------|-------------------*|
|---------------------|-13-12-11-10--5\---*|



Duration Legend
---------------
W - whole; H - half; Q - quarter; E - 8th; S - 16th; T - 32nd; X - 64th; a - acciaccatura
+ - note tied to previous; . - note dotted; .. - note double dotted
Uncapitalized letters represent notes that are staccato (1/2 duration)
Irregular groupings are notated above the duration line
Duration letters will always appear directly above the note/fret number it represents the
duration for.  Duration letters with no fret number below them represent rests.  Multi-
bar rests are notated in the form Wxn, where n is the number of bars to rest for.  Low
melody durations appear below the staff

Tablature Legend
----------------
 h   - hammer-on
 p   - pull-off
 b   - bend
 pb  - pre-bend
 r   - bend release (if no number after the r, then release immediately)
 /\  - slide into or out of (from/to "nowhere")
 s   - legato slide
 S   - shift slide
 - natural harmonic
[n]  - artificial harmonic
n(n) - tapped harmonic
 ~   - vibrato
 tr  - trill
 T   - tap
 TP  - trem. picking
 PM  - palm muting
\n/  - tremolo bar dip; n = amount to dip
 \n  - tremolo bar down
 n/  - tremolo bar up
/n\  - tremolo bar inverted dip
 =   - hold bend; also acts as connecting device for hammers/pulls
 <> - volume swell (louder/softer)
 x   - on rhythm slash represents muted slash
 o   - on rhythm slash represents single note slash

Misc Legend
-----------
 |  - bar
||  - double bar
||o - repeat start
o|| - repeat end
*|  - double bar (ending)
 :  - bar (freetime)
 $  - Segno
 &  - Coda
Tempo markers -  = BPM(8/16=s8/s16), where s8 = swing 8ths, s16 = swing 16ths





Comments


Popular Type O Negative tabs & chords
Be My Druidess Bass Tabs
Black No. 1 2 Bass Tabs
Black Number One 2 Bass Tabs
Christian Women Bass Tabs
Wolf Moon 3 Bass Tabs
Angel Chords
Green Man Tabs
Haunted Tabs
I Know You're Fucking Someone Else Tabs
Less Than 0 Tabs


Song lyrics



↑ Back to top | Tablatures and chords are parodies/interpretations of the original songs. You may use it for private study, scholarship, research or language learning purposes only
© 2014 AZChords.com Contact us | Privacy policy | DMCA | Add/correct tabs | Request tabs | Top 50 tabs