» » »

Type O Negative, Prelude To Agony Tabs (ver.1)

Artists:  A B C D E F G H I J K L M N O P Q R S T U V W X Y Z # 

Prelude To Agony Tabs (ver.1)

Type O Negative Tabs
 Rating:
4/5 (4 votes)
Prelude To Agony lessons Tabs too difficult? Try these video lessons and learn fast
1
                (fdbk)                                   (play both bars 2X)         
|----------------------------|---------------------------------|
|----------------------------|---------------------------------|
|----11-----7-11--12---9-6-5-|11--11----7-11--12---9--6--5-----|
|--X-11-----7-11--12---9-6-5-|11--11----7-11--12---9--6--5--X\-|
|--X--9-----5--9--10---7-4-3-|-9---9----5--9--10---7--4--3--X\-|
|----------------------------|-----9---------------------------|


|---------------------------------------------|
|---------------------------------------------|
|---------------------------------------------|
|--------------------------------------7-5-5--|
|--7--7-7-5p0--7--7-7-5p0--7--7-7-5p0---------|
|---------------------------------------------|

|--------------------------------------------------|
|--------------------------------------------------|
|--------------------------------------------------|
|------------------------------------------5--0-0--|
|--0-5-7--7-7-5p0--7--7-7-5p0--7--7-7-5p0----------|
|--------------------------------------------------|

       "There is no pain like that of desire..."
           pm.....|  pm......|     pm............................|
|------------------------------------------------------------------|
|------------------------------------------------------------------|
|--------9----------------------12---------------------------------|
|--7-----9--9-9-9-9-9-----------12--12-12-12-12-11-11-11-10-10-10--|
|--5--7--7--7-7-7-7-9--9-9-9-9--10--10-10-10-10--9--9--9--8--8--8--|
|-----5-------------7--7-7-7-7-------------------------------------|

 "Is there no difference between women and fire?"
     pm......|   pm.....|
|---------------------------------------|
|---------------------------------------|
|--9------------------------------------|
|--9--9-9-9-9--9-----------12-13-14-15--|
|--7--7-7-7-7--9--9-9-9-9--10-11-12-13--|
|--------------7--7-7-7-7---------------|

"Is sex worth  the price of certain death?"
|--------------------------------------|
|--------------------------------------|
|---------------7----6----7--11--10-9--|
|--9--8--7------5----4----5---9---8-7--|
|--7--6--5-----------------------------|

             "Absolution              I am whole"
|--------------------------------------------------------------|
|--------------------------------------------------------------|
|--------------------------------------------------------------|
|--7--7--9--9--------------7--7--9--9--------------7--7--9--9--|
|--5--5--7--7--9--9--7--7--5--5--7--7--9--9--7--7--5--5--7--7--|
|--------------7--7--5--5--------------7--7--5--5--------------|

"Love       is     l i f e
 Life       is     l o v e
 Love       is     p a i n
 Pain       is    d e a t h"
|----------------------------|
|----------------------------|
|--4--4/7---7--6---6--4-/-7--|
|--4--4/7---7--6---6--4-/-7--|
|--2--2/5---5--4---4--2-/-5--|
|-------------------------5--|

                   (4 times)
|--------------------------|
|--------------------------|
|--------------------------|
|--------------------------|
|--0-3-5-0-3-5-0-3-----5-3-|
|------------------5-3-----|

  "Agony            and ecstacy         your cries of pain my pleasure"
    pm............|   pm    pm..........|   pm.........|   pm   pm...|    
|---------------------------------------------------------------------|
|---------------------------------------------------------------------|
|---------------------------------------------------------------------|
|-2----------------9-99-10---------------7--------------4----5--------|
|-0--000000000000--7-77--8-888888888888--5--5555555555--2-22-3-333333-|
|---------------------------------------------------------------------|


|----------|
|----------|
|-7--------|
|-5-555555-|
|----------|
|----------|

  "P a i n..."
|---------------------|-----------------------|
|---------------------|-----------------------|
|--4---4-4-2---5---3--|--4---4-4-2---5--4--3--|
|--4---4-4-2---5---3--|--4---4-4-0---5--4--3--|
|--2---2-2-0---3---1--|--2---2-2-0---3--2--1--|
|---------------------|-----------------------|
            
Submit corrections

comments powered by Disqus
↑ Back to top | Type O Negative Tabs for Prelude To Agony. Lyrics for acoustic guitar and electric guitar. 1 Tablatures and chords are parodies/interpretations of the original songs. You may use it for private study, scholarship, research or language learning purposes only