» » »

Type O Negative, Life Is Killing Me Tabs (ver.1)

Artists:  A B C D E F G H I J K L M N O P Q R S T U V W X Y Z # 

Life Is Killing Me Tabs (ver.1)

Type O Negative Tabs
 Rating:
4/5 (4 votes)
Life Is Killing Me lessons Tabs too difficult? Try these video lessons and learn fast
                Artist    Type O Negative
Title     Life Is Killing Me
Album     Life Is Killing Me
Tuning    Down a half step and drop Db - you only play the 3 lowest strings so you dont have 
		to bother downtuning the top 3.

As far as I know this is the first tab for this song on the net. I tabbed it from the promo so it might be slightly different from the finished song (the album comes out in june)


Intro
Eb|-------------------------------------------------------------------------|
Bb|-------------------------------------------------------------------------|
Gb|-------------------------------------------------------------------------|
Db|---0---0---7/10-12---3---3---5---6---0---0---7/10-12---10---10---5---3---|
Ab|---0---0---7/10-12---3---3---5---6---0---0---7/10-12---10---10---5---3---|
Db|---0---0---7/10-12---3---3---5---6---0---0---7/10-12---10---10---5---3---|

|--------------------------------------------------------------|
|--------------------------------------------------------------|
|--------------------------------------------------------------|
|---0---0---7/10-12---3---3---5---6---0---3---5---6---7---10---|
|---0---0---7/10-12---3---3---5---6---0---3---5---6---7---10---|
|---0---0---7/10-12---3---3---5---6---0---3---5---6---7---10---|

Chorus
|-----------------------------------------------------------------------------------------|
|-----------------------------------------------------------------------------------------|
|-----------------------------------------------------------------------------------------|
|-12-12-12-12-12-12-12-12-10-10-10-10-10-10-10-10-8-8-8-8-8-8-8-8-10-10-10-10-10-10-10-10-|
|-12-12-12-12-12-12-12-12-10-10-10-10-10-10-10-10-8-8-8-8-8-8-8-8-10-10-10-10-10-10-10-10-|
|-12-12-12-12-12-12-12-12-10-10-10-10-10-10-10-10-8-8-8-8-8-8-8-8-10-10-10-10-10-10-10-10-|

Verse
|---------------------------------------------------------------------|
|---------------------------------------------------------------------|
|---------------------------------------------------------------------|
|---7-7-7-7-7-7-7-7-4-4-4-4-4-4-4-5-3-3-3-3-3-3-3-3-5-5-5-5-5-7-5-7---|
|---7-7-7-7-7-7-7-7-4-4-4-4-4-4-4-5-3-3-3-3-3-3-3-3-5-5-5-5-5-7-5-7---|
|---7-7-7-7-7-7-7-7-4-4-4-4-4-4-4-5-3-3-3-3-3-3-3-3-5-5-5-5-5-7-5-7---|
PM  . . . . . . . . . . . . . . . . . . . . . . . . . . . . .

Fill A
|-------------------------------------------------------------------------------------|
|-------------------------------------------------------------------------------------|
|-------------------------------------------------------------------------------------|
|---2b3r2-10-2---2-10-2---2-10-3---3-12-10---2b3r2-10-2---2-10-2---2-10-3---3-12-10---|
|---2b3r2-10-2---2-10-2---2-10-3---3-12-10---2b3r2-10-2---2-10-2---2-10-3---3-12-10---|
|---2b3r2-10-2---2-10-2---2-10-3---3-12-10---2b3r2-10-2---2-10-2---2-10-3---3-12-10---|

Fill B
|-----------------------------------------------------------------------------------------|
|-----------------------------------------------------------------------------------------|
|-----------------------------------------------------------------------------------------|
|---2-------3-------5-------5-----------------2-------3-------4-------5-------------------|
|---2-------3-------4-------5---0-3-5-3-0-----2-------3-------4-------5---0-3-5-3-0-------|
|---2-------3-------4-------5-------------5---2-------3-------4-------5-------------5-----|

Outro
|-----------------------------------------------------------------------------------------|
|-----------------------------------------------------------------------------------------|
|-----------------------------------------------------------------------------------------|
|------------------------------2-----------------------------------------2----------------|
|------------------0-3-5-3-0---2-------------0----2---4---5----4----2----2----------------|
|----------------------------5-2--------4--------------------------------2----------------|
a second guitar plays 
this on the 4th string (Db)----14--------------------/16b---------------------------------|





I think I got a lot of this wrong but it sounds close enough.


Intro x2
(no guitar for a bit)
Chorus x2
Verse x2, then once without the palm-muting, then once again with PM
Chorus x2
Verse x2, then once without the palm-muting, then once again with PM
Fill A x2
Fill B x1
Fill A x2
Fill B x1
Fill A x3
Intro x1
(no guitar again)
Chorus x4
Outro x1
            
Submit corrections

comments powered by Disqus
↑ Back to top | Type O Negative Tabs for Life Is Killing Me. Lyrics for acoustic guitar and electric guitar. Tablatures and chords are parodies/interpretations of the original songs. You may use it for private study, scholarship, research or language learning purposes only