>
 >
Iydkmigthtky (Gimme That)

Iydkmigthtky (Gimme That) Guitar Tabs

Type O Negative - Iydkmigthtky (Gimme That) chords, tabs, tablatures, lyrics

Guitar lessons | Add/correct | Request | Top 50 tabs Artists:  A B C D E F G H I J K L M N O P Q R S T U V W X Y Z 0-9

Iydkmigthtky (Gimme That) Guitar Tabs – Type O Negative

CD, Sheet music, Poster

Do you like Iydkmigthtky (Gimme That)? Share with your friends now
Tabs

h - hammer on 
p - pull off 
b - bend string 
r - release bend
/ - slide up
\ - slide down
~ - vibrato 
x - play 'note' with heavy damping
^ - Artificial Harmonic
()- Fret to Bend To

Type-O tuning from low to high (B,E,A,D,F#,B)


INTRO: Heavy Distortion

  “Two, three, four…”
||--------------------------------------------------------------------|
||-------------------^19~ --------------------------------------------|
||--------------------------------------------------------------------|
||--------------------------------------------------------------------|
||-------------------------------------------5/7------------------5/7-|
||----------------------------7-6-5---5-3/5--------7-6-5---5-3/5------|


||------------------------------------------||
||------------------------------------------||
||------------------------------------------||   (Repeat)
||------------------------------------------||
||-----------------5/7----4b(5)r------------||
||--7-6-5---5-3/5-----------------3b(5)r----||


VERSE: Bass Arranged For Guitar Lighter Distortion 
(Pretty nice bass line by Peter!)

  “It's been doing some thinking…”  (3 times)
||----------------------------------------------||
||----------------------------------------------||
||----------------------------------------------||  4X
||----------------------------------------------||
||--2-----------------2---------12-------12-----||
||------0-2-4---0-2-4---5----10----10—-9----9---||
||----------------------------------------------||


VERSES 2&3: You can hear in the background Kenny throwing 
in this lick:

||---------------------------|---------------------------||
||--12-12-12-12-12-12-12-12--|--12-12-12-12-12-12-12-12--||
||---9--9--9--9--9--9--9--9--|---9--9--9--9--9--9--9--9--||
||---------------------------|---------------------------||
||---------------------------|---------------------------||
||---------------------------|---------------------------||

||---------------------------|--10-10-10-10-10-10-10-10--||
||--10-10-10-10-10-10-10-10--|--12-10-10-10-10-10-10-10--||
||---9--9--9--9--9--9--9--9--|---------------------------||
||---------------------------|---------------------------||
||---------------------------|---------------------------||
||---------------------------|---------------------------||



CHORUS: back to heavy dist. with a lot of echo/reverb 

  “If you don't kill me…”           
||------------------------------------------------------||
||------------------------------------------------------||
||------------------------------------------------------|| 4X
||--------------4//7—-7\\--7—-7\\-----------------------||
||--4--x--4-4---4//7—-7\\--7—-7\\---9x-9x-9x-9x-9x-9x---||
||--4--x--4-4---2//5—-5\\--5—-5\\---9x-9x-9x-9x-9x-9x---||
||--2--x--2-2-----------------------7x-7x-7x-7x-7x-7x---||

Josh plays some interesting notes on keyboard which repeats 
during the entire chorus.  It reminds me of an alarm going off.  

||--------12-12--------------12-12--------------12-12-----------||
||--14-14-------10-10--14-14-------10-10--14-14-------10-10-----|| 
||--------------------------------------------------------------|| 4X
||--------------------------------------------------------------||
||--------------------------------------------------------------||
||--------------------------------------------------------------||



SOLO: Keyboard arranged for guitar.  There is excellent note 
selection in this solo which fits perfectly with the song.  
Sounds as if Josh is using a clarinet sound on keyboard.

||---16h17p16-----16h17p16-17-19-17----16h17p16-----16h17p16--|
||------------17--------------------------------17------------|
||------------------------------------------------------------|
||------------------------------------------------------------|
||------------------------------------------------------------|
||------------------------------------------------------------|

||---17-19-17-15b(16)r-b(16)---||
||-----------------------------||
||-----------------------------||
||-----------------------------||
||-----------------------------||
||-----------------------------||

OUTRO: This is the same riff as the chorus, however, there are 
some chromatic runs as the outro builds.  Starts 4 measures in.

   “If you don't kill me…”    “I'm going to have to kill you!”       
||--------------------------|----------------------------------|
||--------------------------|----------------------------------|
||--------------------------|----------------------------------| 2X
||--4-3-2-1-0---------------|--4-3-2-1-0-----------------------|
||--------------------------|----------------------------------|
||--------------------------|----------------------------------|

   “You must decide…”
||---------------------------------------||
||---------------------------------------||
||---------------------------------------|| Repeats to end of song
||------------------------------2-3-4-5--||
||----------1-2-3-4-5---2-3-4-5--------- ||
||--2-3-4-5------------------------------||


Enjoy!

“Around the Pyre, a circle of thirteen
Throughout these woods, ecstatic screams!”





Comments


Popular Type O Negative tabs & chords
Angry Inch Bass Tabs
Be My Druidess Bass Tabs
My Girlfriends Girlfriend 3 Bass Tabs
Too Late Frozen Bass Tabs
Nettie Chords
Black No Tabs
Christian Woman 1 Tabs
Suspended In The Dark Tabs
Unsuccessful Copying With The Natural Be Tabs
Nettie Ukulele


Song lyrics



↑ Back to top | Tablatures and chords are parodies/interpretations of the original songs. You may use it for private study, scholarship, research or language learning purposes only
© 2014 AZChords.com Contact us | Privacy policy | DMCA | Add/correct tabs | Request tabs | Top 50 tabs