>
 >
I Know You're Fucking Someone Else

I Know You're Fucking Someone Else Guitar Tabs

Type O Negative - I Know You're Fucking Someone Else chords, tabs, tablatures, lyrics

Guitar lessons | Add/correct | Request | Top 50 tabs Artists:  A B C D E F G H I J K L M N O P Q R S T U V W X Y Z 0-9

I Know You're Fucking Someone Else Guitar Tabs – Type O Negative

CD, Sheet music, Poster

Do you like I Know You're Fucking Someone Else? Share with your friends now
TabsTabs v2
I Know You're F***ing Someone Else/Type O Negative

Dropped D Tuning (low to high: DADGBE)
See bottom for arrangement

Intro Riff A (w/ feedback and scratchiness throughout)
E---------------------------------------------------------
B---------------------------------------------------------
G--7-------------3--7--8------5--------------------7------
D--7-------------3--7--8------5--7--6--------------7---0--
A--5-------------1--5--6------3--7--6--------------5---0--
D--------------------------------7--6------------------0--

E------------------------
B------------------------
G--3--7--8------5--------
D--3--7--8------5--7--6--
A--1--5--6------3--7--6--
D------------------7--6--

Verse Riff A ("Trust and you'll be trusted...)
E---------------------------------------
B---------------------------------------
G--7--7-------5--5----------------------
D--7--7----7--5--5----5--4/5----5--4/5--
A--5--5----5--3--3----3--2/3----3--2/3--
D---------------------------------------

Verse Riff B (in between lyrics)
E------------------------------------------
B------------------------------------------
G------------------------------------------
D--5--5----5--3--3----3--4--5--5--4--5--5--
A--5--5----5--3--3----3--2--3--3--2--3--3--
D--5--5----5--3--3----3--------------------

Interlude Riff A
E---------------------------------------------------------
B---------------------------------------------------------
G---------------------------------------------------------
D--5--------4--------3--------2--------5--------4---------
A--5--------4--------3--------2--------5--------4---------
D--5--------4--------3--------2--------5--------4---------

E---------23^1/4------------------------------------------
B---------------------------------------------------------
G---------------------------------------------------------
D--3-------------------5--------4--------3----------------
A--3-------------------5--------4--------3----------------
D--3-------------------5--------4--------3--------2-------


E---------------------------------
B---------------------------------
G---------------------------------
D-----1--------0h1--------2----0--
A-----1--------0h1--------2----0--
D-----1--------0h1--------2----0--

Intro Riff B
E----------------------------------------------------
B----------------------------------------------------
G----------------------------------------------------
D----------------------------------------------------
A--------------7--7--7--7--5-------------------------
D--9--9--9--9-----------------7--7--7--6/7--7--7--7--

Verse Riff C
E----------------------------------------------------
B--------------8--8--8--8--6-------------------------
G--7--7--7--7--7--7--7--7--5--5--5--5-------5--5--5--
D--7--7--7--7--5--5--5--5--3--5--5--5--4/3--5--5--5--
A--5--5--5--5-----------------3--3--3--2/5--3--3--3--
D----------------------------------------------------

Interlude Riff B (something like this)
E---------------------------------------------------------
B----------8------------------7------------------5--------
G---------------------------------------------------------
D--9----9-----9----9--8----8-----8----8--7----7-----7-----
A---------------------------------------------------------
D---------------------------------------------------------

E------------------------
B------------3--------5--
G---------4--------4-----
D---7--5--------5--------
A------------------------
D------------------------

Interlude Riff C
E---------------------------------------------------------
B---------------------------------------------------------
G---------------------------------------------------------
D--6--------7--------9--------8--------7--------5--4--3---
A--6--------7--------9--------8--------7--------5--4--3---
D--6--------7--------9--------8--------7--------5--4--3---

E-----------------------
B-----------------------
G-----------------------
D--2--------1--------0--
A--2--------1--------0--
D--2--------1--------0--


Intro Riff C/Chorus Riff ("I know you're f***ing someone else...")
E-----------------------------------
B-----------------------------------
G-----0-----0--------------------0--
D-----------------------------------
A-----------------------------------
D--5-----8-----8h10--10--3----3-----

Guitar Solo A
E---------------------------------------------------------
B--7----7--7--5----5--5--4--------4-----4--5h7------------
G---------------------------4--4-----4--------------------
D---------------------------------------------------------
A---------------------------------------------------------
D---------------------------------------------------------

E--------------------------------------------
B--7--7--5----5--5----4--------5--4----------
G------------------------4--4--------4--3h4--
D--------------------------------------------
A--------------------------------------------
D--------------------------------------------

Verse Riff D
E------------------------------------------
B------------------------------------------
G--------5----------5----------5--------5--
D-----5----------5----------5--------5-----
A------------------------------------------
D--5----------8----------3--------2--------

Pre-Chorus
E-----------------------------
B-----------------------------
G--7--7----2--3--3------------
D--7--7----2--3--3------------
A--5--5----0--1--1--3h5--3h5--
D-----------------------------

Verse Riff E (played over organ and Peter's vocals)
     p.m.-------     ----     -
E---------------------------------------------------------
B---------------------------------------------------------
G---------------------------------------------------------
D--6--6-----------4--------4-----4--6--6--------------4---
A--6--6-----------2--2--2--2--2--2--4--4-----4--3--2------
D--6--6--6--6--6--------------------------6---------------



E--------------
B--------------
G--6--------6--
D--------6-----
A-----4--------
D--------------

Guitar Solo B
E---------2---------2---------2--------------------------
B--3^1/2-----3^1/2-----3^1/2-----4--3--2-----0-----------
G-----------------------------------------1--------------
D--------------------------------------------------------
A--------------------------------------------------------
D--------------------------------------------------------

E---------2---------2---------2--------4--
B--3^1/2-----3^1/2-----3^1/2-----4--2-----
G-----------------------------------------
D-----------------------------------------
A-----------------------------------------
D-----------------------------------------

Arrangment:
Intro Riff A
Verse Riff A 6X
Verse Riff B 4X
Verse Riff A 4X
Interlude Riff A
Verse Riff A 6X
Verse Riff B 4X
"I'm in the Mood For Love"
Intro Riff B 2X
Verse Riff C 4X
Interlude Riff B 6X
Interlude Riff C 2X
Intro Riff C/Chorus Riff 4X
Guitar Solo A
Verse Riff D 4X
Pre-Chorus 4X
Intro Riff C/Chorus Riff 4X
Verse Riff D 4X
Pre-Chorus 4X
Intro Riff C/Chorus Riff 4X
Verse Riff E 6X
Guitar Solo B 2 1/2X
Verse Riff E
Intro Riff C/Chorus Riff 38X

That's it!  I know this tab has mistakes and things missing, but it is 
more than accurate enough.





Comments


Popular Type O Negative tabs & chords
Black No 2 Bass Tabs
Black No. 1 2 Bass Tabs
Gravitational Constant Bass Tabs
Too Late Frozen Bass Tabs
I Don't Wanna Be Me Chords
Be My Druidess Tabs
Dream Is Dead Tabs
Paranoid Tabs
Some Stupid Tomorrow 1 Tabs
White Slavery Tabs


Song lyrics



↑ Back to top | Tablatures and chords are parodies/interpretations of the original songs. You may use it for private study, scholarship, research or language learning purposes only
© 2014 AZChords.com Contact us | Privacy policy | DMCA | Add/correct tabs | Request tabs | Top 50 tabs