» » »

I Dont Want To Be Me Tabs (ver.1)

Artists:  A B C D E F G H I J K L M N O P Q R S T U V W X Y Z # 

I Dont Want To Be Me Tabs (ver.1)

Type O Negative
Rating:
0/5 (0 votes)

Tabs too difficult? Try these video lessons and learn fast.
                Type o Negative
I don't want to be me
drop d tuning

Intro: not exact amount of strums)
------------------
------------------
------------------
--7--7--7--7--7--7
--7--7--7--7--7--7
--7--7--7--7--7--7

chorus and verses: (this isn't the exact amount of strums, im just showing the chord)
------------------------------------------------------------
------------------------------------------------------------
------------------------------------------------------------
--3-3-3-3-3-3-3-3--0-0-0-0-0-0-0-0--7-7-7-7-7-7-7--5-5-5-5-5
--3-3-3-3-3-3-3-3--0-0-0-0-0-0-0-0--7-7-7-7-7-7-7--5-5-5-5-5
--3-3-3-3-3-3-3-3--0-0-0-0-0-0-0-0--7-7-7-7-7-7-7--5-5-5-5-5

small little solo they play throughout the song:
--------------------------------------12-8-12-8-12-8-7---12-8-12-8-7-3
--9-5-9-5-9-5-4-5---9-5-9-5-4-0---------------------------------------

Thats all Ive figured out. i should have the solo soon, but feel free to post it if you figure it out before me
            
Tabs too difficult? Try these video lessons and learn fast.


comments powered by Disqus
↑ Back to top | Tablatures and chords are parodies/interpretations of the original songs. You may use it for private study, scholarship, research or language learning purposes only