» » »

I Don't Wanna Be Me Bass tabs (ver.1)

Artists:  A B C D E F G H I J K L M N O P Q R S T U V W X Y Z # 

I Don't Wanna Be Me Bass tabs (ver.1)

Type O Negative
Rating:
0/5 (0 votes)

Hard to play? Try these video lessons and learn fast.
                ------------------------------------------------------------------------------
Main riff/verse:
G|-----------------------------------------------------------------|
D|-----------------------------------------------------------------|
A|-----------------------------------------------------------------|
E|-7-7-7-7-7-7-7-7-5-5-5-5-5-5-5-5-4-4-4-4-4-4-4-4-4-4-2-2-2-2-2-2-| x7
	

Chorus:
G|-----------------------------------------------------------------|
D|-----------------------------------------------------------------|
A|-7-7-7-7-7-7-7-7-5-5-5-5-5-5-5-5---------------------------------|
E|---------------------------------4-4-4-4-4-4-4-4-4-4-2-2-2-2-2-2-|x 4
	
Main riff x 8

Second chorus: Chorus x 3

On the fourth time play this:
G|---------------------------------------------------|
D|---------------------------------------------------|
A|-7-7-7-7-7-7-7-7-5-5-5-5-5-5-5-5-------------------|
E|---------------------------------4-5-6-7-8-9-10-11-|


Bass/keyboard break:
G|-----------------------------------------------------------------|
D|-----------------------------------------------------------------|
A|-5h7-5h7-5h7-5h7-5h7-5h7-5h7-5h7-5h7-5h7-5h7-5h7-5h7-5h7-5h7-5h7-|
E|-----------------------------------------------------------------|	x 2

Riff underneath guitar solo:

G|-----------------------------------------------------------------|
D|-----------------------------------------------------------------|
A|-7-7-7-7-7-7-7-7-5-5-5-5-5-5-5-5---------------------------------|
E|---------------------------------4-4-4-4-4-4-4-4-4-4-2-2-2-2-2-2-|


G|---------------------------------------------------|
D|---------------------------------------------------|
A|-7-7-7-7-7-7-7-7-5-5-5-5-5-5-5-5-------------------|
E|---------------------------------4-5-6-7-8-9-10-11-|       x 2

Bass/keyboard break x2

Outro:

G|-----------------------------------------------------------------|
D|-----------------------------------------------------------------|
A|-7-7-7-7-7-7-7-7-5-5-5-5-5-5-5-5---------------------------------|
E|---------------------------------4-4-4-4-4-4-4-4-4-4-2-2-2-2-2-2-|	x 3

G|---------------------------------------------------|
D|---------------------------------------------------|
A|-7-7-7-7-7-7-7-7-5-5-5-5-5-5-5-5-------------------|
E|---------------------------------4-5-6-7-8-9-10-11-|


G|-----------------------------------------------------------------|
D|-----------------------------------------------------------------|
A|-7-7-7-7-7-7-7-7-5-5-5-5-5-5-5-5---------------------------------|
E|---------------------------------4-4-4-4-4-4-4-4-4-4-2-2-2-2-2-2-|


G|---------------------------------------------------|
D|---------------------------------------------------|
A|-7-7-7-7-7-7-7-7-5-5-5-5-5-5-5-5-------------------|
E|---------------------------------4-5-6-7-8-9-10-11-|


G|-----------------------------------------------------------------|
D|-----------------------------------------------------------------|
A|-7-7-7-7-7-7-7-7-5-5-5-5-5-5-5-5---------------------------------|
E|---------------------------------4-4-4-4-4-4-4-4-4-4-2-2-2-2-2-2-|	x 2

On the last time play this:

G|------------------------------------|
D|------------------------------------|
A|-7-7-7-7-7-7-7-7-5-5-5-5-5-5-5-5----|
E|---------------------------------4p-|
            
Hard to play? Try these video lessons and learn fast. | Correct




comments powered by Disqus
↑ Back to top | Tablatures and chords are parodies/interpretations of the original songs. You may use it for private study, scholarship, research or language learning purposes only