» » »

Haunted Tabs (ver.2)

Artists:  A B C D E F G H I J K L M N O P Q R S T U V W X Y Z # 

Haunted Tabs (ver.2)

Type O Negative
Rating:
0/5 (0 votes)

Hard to play? Try these video lessons and learn fast.
                typeonegative - haunted


Type-O tuning from low to high (B,E,A,D,F#,B)

{ Most riffs in this song are pretty "dull",
  because the song is carried by voice and voice-
  samples }

Intro-riff
{ top 3 strings is keyboard
  before the bass and dist.gtr. fall in do a slow
  pick scr*pe }
|------11-----9-----------------14---19---18---14---9-------|
|----9-----9-----9--11---11-12------------------------------|
|-11--------------------------------------------------------|
|-----------------------------------------11----------------|
|--4/6-------------6/8-----8/9-------------9------(8b9r8)---|
|--2/4-------------4/6-----6/7------------(9)------6b7r6----|



Verse-riff
{ Very slow and heavy riff (dots are counts...) }
|-----------------------------------------------------------|
|-----------------------------------------------------------|
|-----------------------------------------------------------|
|--------9--------11-11-----x\---------9--------------------|
|--4-----7-----2---9--9--9--x\---4-----7-----2--------------|
|--2-.-.---.-.-0-.---------------2-.-.---.-.-0-.-0-6b7r6-0--|

{ Some keyboard (church-organ) chords that are -I think-
  used in the verse }
|-(9)---(7)---(6)---(12)---(12)---(14)---(14)---------------|
|-(7)---(7)---(7)---(14)---(12)---(11)---(12)---------------|
|-(9)---(9)---(9)---(11)---(11)---(11)---(11)---------------|
|-----------------------------------------------------------|
|-----------------------------------------------------------|
|-----------------------------------------------------------|

{ The scale Josh uses for that "hypnotic",
  "just after the beat" tones in the verse.
|---------------9-12---9------------------------------------|
|-------9-11-12----------12---- and repeat this ------------|
|--9-11---------------------9-------------------------------|
|-----------------------------------------------------------|
|-----------------------------------------------------------|
|-----------------------------------------------------------|

Chorus-riff
|--------------------------------------|
|--------------------------------------|
|--6--6--6--6--6--6--6--6--6--6--6--6--|
|--6--6--6--6--4--4--4--4--4--4--4--4--|
|--4--4--4--4--4--4--2--2--2--2--2--2--|
|--------------------------------------|

|                        3 times|                         4.|
|-------------------------------|---------------------------|
|--------------------  pick  ---|---------------------------|
|-------------------- scr*pe ---|---------------------------|
|--6-------------x\-\-\-\-------|--9\8-8\7-7\6-6\5-5/6-6/7--|
|--6-------------x\-\-\-\-------|--7\6-6\5-5\4-4\3-3/4-4/5--|
|--4----------------------------|--7\6-6\5-5\4-4\3-3/4-4/5--|
"I hate the morning"


Riff during "Pete's poetry"
|-----------------------------------------------------------|
|---------x6----------x6-----------x6----------x6-----------|
|--8-----------10----------11-----------10------------------|
|----8------------9-----------10-----------9----------------|
|-----------------------------------------------------------|
|-----------------------------------------------------------|

"Well that's about it, I hope it wasn't to disappointing..."
            
Hard to play? Try these video lessons and learn fast. | Correct




comments powered by Disqus
↑ Back to top | Tablatures and chords are parodies/interpretations of the original songs. You may use it for private study, scholarship, research or language learning purposes only