» » »

Halloween In Heaven Tabs (ver.1)

Artists:  A B C D E F G H I J K L M N O P Q R S T U V W X Y Z # 

Halloween In Heaven Tabs (ver.1)

Type O Negative
Rating:
5/5 (1 vote)

Tabs too difficult? Try these video lessons and learn fast.
                "Halloween in Heaven"
Tune guitar 2.5 steps below standard
Low to high: B,E,A,D,F#,b

Fast/Punk feel

I. INTRO RIFF:

b ||-------------------------------------------------||
F#||-16-16-16-14-14-14-16-16-16-14-14-14-16-16-14-14-||
D ||-13-13-13-13-13-13-13-13-13-13-13-13-13-13-13-13-||
A ||-------------------------------------------------||
E ||-------------------------------------------------||
B ||-------------------------------------------------||

VERSE:
"The dead they got..."
                Fdbk              pick slide
||-----------------------||--------------||
||-16-----------(16)-----||--------------||
||-13-----------(13)-----||--------------||
||-----------------------||--------------||
||-----------------------||---------X\---||
||-----------------------||---------X\---||

"Heaven              limbo in hell
Purgatory                 oh well       oh well"
||----------------------------------------------------------||
||----------------------------------------------------------||
||----------------------------------------------------------||
||-13-13-13-13-13-13----------------------------------------||
||-11-11-11-11-11-11--9------9--9-9-9-9-9-11111111-----9/11-||
||----------------------11-9-7--7-7-7-7-7-9-9-9-9--9^11-----||

CHORUS:
  "Halloween in heaven"
||-------------------------------------------------||
||-16-16-16-14-14-14-16-16-16-14-14-14-16-16-14-14-||
||-13-13-13-13-13-13-13-13-13-13-13-13-13-13-13-13-||
||-------------------------------------------------||
||-------------------------------------------------||
||-------------------------------------------------||

REPEAT VERSE

REPEAT CHORUS


II.  MIDDLE INTRO (bass only)

  "Bonham on drums..."
  "Bon Scott on vox..."
||-------------------------------------------------------------------||
||-------------------------------------------------------------------||
||-------------------------------------------------------------------||
||-8-8-81111-6-6-6-6/8-81111-6-6-6-6/8-81111-6-6-6---------------6-6-||
||-6-6-6-9-9-4-4-4-4/6-6-9-9-4-4-4-4/6-6-9-9-4-4-4-6-6-/7-7-/8-8-4-4-||
||------------------------------------------------/4-4-/5-5-/6-6-----||

"do do do do do..."
             fdbk
||------------------------------------------||
||------------------------------------------||
||------------------------------------------||
||-8---------(8)------------------------6-6-||
||-6---------(6)---------/6-6-/7-7-/8-8-4-4-||
||-----------------------/4-4-/5-5-/6-6-----||

"Lennon sits in..."
||-------------------------------------------------------------------||
||-------------------------------------------------------------------||
||-------------------------------------------------------------------||
||-8-8-81111-6-6-6-6/8-81111-6-6-6-6/8-81111-6-6-6---------------6-6-||
||-6-6-6-9-9-4-4-4-4/6-6-9-9-4-4-4-4/6-6-9-9-4-4-4-6-6-/7-7-/8-8-4-4-||
||------------------------------------------------/4-4-/5-5-/6-6-----||


              "Of course..."  "When I..."      "and took a part..."
||-------------------------------------------------------------||
||-------------------------------------------------------------||
||-------------13-------------6-----------------13-------------||
||----------11--------------4----------------11------6-4---4/6-||
||-11--11-9-----------4-4-2---------11--11-9---------4-2---2/4-||
||---11----------------4--------------11-----------------------||

               "Same time..." "From beyond.."   "became what..."
||-------------------------------------------------------------||
||-------------------------------------------------------------||
||-------------13-------------6-----------------13-------------||
||----------11--------------4----------------11------6-4---4/6-||
||-11--11-9-----------4-4-2---------11--11-9---------4-2---2/4-||
||---11----------------4--------------11-----------------------||

"Elvis ain't dead..."
"Demon roadies..."
||-------------------------------------------------------------------||
||-------------------------------------------------------------------||
||-------------------------------------------------------------------||
||-8-8-81111-6-6-6-6/8-81111-6-6-6-6/8-81111-6-6-6---------------6-6-||
||-6-6-6-9-9-4-4-4-4/6-6-9-9-4-4-4-4/6-6-9-9-4-4-4-6-6-/7-7-/8-8-4-4-||
||------------------------------------------------/4-4-/5-5-/6-6-----||

"do do do do do..."
             fdbk
||------------------------------------------||
||------------------------------------------||
||------------------------------------------||
||-8---------(8)------------------------6-6-||
||-6---------(6)---------/6-6-/7-7-/8-8-4-4-||
||-----------------------/4-4-/5-5-/6-6-----||

"If only I'd known..."
||-------------------------------------------------------------------||
||-------------------------------------------------------------------||
||-------------------------------------------------------------------||
||-8-8-81111-6-6-6-6/8-81111-6-6-6-6/8-81111-6-6-6---------------6-6-||
||-6-6-6-9-9-4-4-4-4/6-6-9-9-4-4-4-4/6-6-9-9-4-4-4-6-6-/7-7-/8-8-4-4-||
||------------------------------------------------/4-4-/5-5-/6-6-----||

               "Of harps..."  "Pumpkin..."     "Flames..."
||-------------------------------------------------------------||
||-------------------------------------------------------------||
||-------------13-------------6-----------------13-------------||
||----------11--------------4----------------11------6-4---4/6-||
||-11--11-9-----------4-4-2---------11--11-9---------4-2---2/4-||
||---11----------------4--------------11-----------------------||

              "Orange..."     "Years take..."   "Christmas..."
||-------------------------------------------------------------||
||-------------------------------------------------------------||
||-------------13-------------6-----------------13-------------||
||----------11--------------4----------------11------6-4---4/6-||
||-11--11-9-----------4-4-2---------11--11-9---------4-2---2/4-||
||---11----------------4--------------11-----------------------||


III.  ENDING:

  "Halloween in heaven"
||-------------------------------------------------||
||-16-16-16-14-14-14-16-16-16-14-14-14-16-16-14-14-||
||-13-13-13-13-13-13-13-13-13-13-13-13-13-13-13-13-||
||-------------------------------------------------||
||-------------------------------------------------||
||-------------------------------------------------||


||-----------------------||
||-----------------------||
||-----------------------||
||-13--13--13--13--11-13-||
||-11--11--11--11--9--11-||
||-----------------------||
            
Tabs too difficult? Try these video lessons and learn fast.




comments powered by Disqus
↑ Back to top | Tablatures and chords are parodies/interpretations of the original songs. You may use it for private study, scholarship, research or language learning purposes only