>
 >
Gravitational Constant

Gravitational Constant Bass Tabs

Type O Negative - Gravitational Constant chords, tabs, tablatures, lyrics

Guitar lessons | Add/correct | Request | Top 50 tabs Artists:  A B C D E F G H I J K L M N O P Q R S T U V W X Y Z 0-9

Gravitational Constant Bass Tabs – Type O Negative

CD, Sheet music, Poster

Do you like Gravitational Constant? Share with your friends now
Bass TabsTabs
Type O Negative - Gravitational Constant, Off Slow Deep and Hard 1991 Album


||--------|--------------------------------------------------|
||--------|----X--9-9-9-90--------0-12-12-12-XX-14-14-14-XX--|
||--------|----X--7-7-7-70-9-9-9-X0-10-10-10-XX-12-12-12-XX--|
||--------|----------------7-7-7-X---------------------------|

And I got no more love to give
Ive seen the future the future looks black

|------------------------------------------------------||
|--9-9-9-90--------0-12-12-12--------------------------||
|--7-7-7-70-9-9-9-X0-10-10-10-00-12-12-12-12-12-12-12--||
|-----------7-7-7-X-----------00-10-10-10-10-10-10-10--||

Tonights the night Ill paint the town red Ill put another hole
Its what I must do have no reservations
||-------------------------------------------------|-9------7--||
||---X--9-9-9-90--------0-12-12-12-XX-14-14-14-XX--|-9---77-7--||
||---X--7-7-7-70-9-9-9-X0-10-10-10-XX-12-12-12-XX--|-7---55-5--||
||---------------7-7-7-X---------------------------|-----------||


  pm.....................|         pm....................|
||-------------------------5-7-4-5-------------------------7-6-5-||
||-5-6-7-5-6-7-5-4-5-4-5-4---------5-6-7-5-6-7-5-4-5-4-5-4-------||


  pm....................|          pm............|
||-------------------------5-7-4-5-----------------7-6-7---7-6-5-||
||-5-6-7-5-6-7-5-4-5-4-5-4---------5-6-7-5-6-7-5-4-5-4-5---5-4-3-||

Guitar solo
||-/7---5h7-5-4---7---5h7-5-4-5---/7---5h7-5-4-5--5-4-5-4--------------||
||--------------------------------------------------------5-4-3--0-2-3-||


   pm.....|     pm.....|       pm.....|     pm.....|
||----------2-4----------4-3-2----------2-4----------4-3-2--||
||------------------------------0-0-0-0---------------------||
||--2-2-2-2------4-4-4-4---------------------4-4-4-4--------||

Crushing me
   pm.....|     pm.....|       pm.....|     pm.....|
||----------2-4----------4-3-2----------2-4----------2----||
||------------------------------0-0-0-0----------------2--||
||--2-2-2-2------4-4-4-4---------------------4-4-4-4------||

Rest Guitar Does Break

Die, die
||---12--12-11-10--9--8--7--6--5--4--3--2--||
||---11--10--9--8--7--6--5--4--3--2--1--0--||

 I feel something pulling me down
||----X--9-9-9-90--------0-12-12-12-XX-14-14-14-XX--|
||----X--7-7-7-70-9-9-9-X0-10-10-10-XX-12-12-12-XX--|
||----------------7-7-7-X---------------------------|

Forcing me between
|--9-9-9-90--------0-12-12-12--------------------------||
|--7-7-7-70-9-9-9-X0-10-10-10-00-12-12-12-12-12-12-12--||
|-----------7-7-7-X-----------00-10-10-10-10-10-10-10--||

Of all the nightmares that ever came true
||-------------------------------------------------|-9------7--||
||---X--9-9-9-90--------0-12-12-12-XX-14-14-14-XX--|-9---77-7--||
||---X--7-7-7-70-9-9-9-X0-10-10-10-XX-12-12-12-XX--|-7---55-5--||
||---------------7-7-7-X---------------------------|-----------||


  pm.....................|         pm....................|
||-------------------------5-7-4-5-------------------------7-6-5-||
||-5-6-7-5-6-7-5-4-5-4-5-4---------5-6-7-5-6-7-5-4-5-4-5-4-------||


  pm....................|          pm............|
||-------------------------5-7-4-5-----------------7-6-7---7-6-5-||
||-5-6-7-5-6-7-5-4-5-4-5-4---------5-6-7-5-6-7-5-4-5-4-5---5-4-3-||


Gravity
   pm.....|     pm.....|       pm.....|     pm.....|
||----------2-4----------4-3-2----------2-4----------4-3-2--||
||------------------------------0-0-0-0---------------------||
||--2-2-2-2------4-4-4-4---------------------4-4-4-4--------||


Crushing me
   pm.....|     pm.....|       pm.....|     pm.....|
||----------2-4----------4-3-2----------2-4----------2----||
||------------------------------0-0-0-0----------------2--||
||--2-2-2-2------4-4-4-4---------------------4-4-4-4------||

    Aaahh                      (4 times)
||-----------|----------|----------------------------||
||-----------|----------|----------------------------||
||--2---3----|-2---3----|-2--3--5--------------------||
||--2---3--X-|-2---3--X-|-2--3--3--5-4-5-4--7--8--9--||

 palm mute the open E notes
||-------------------------------------------------------------|
||------------------------8--------------------------------8---|
||-9--7----5--7----2-5--7-7-----7---9897----5457----2-5--7-7---|
||-7--7----5--5----2-5--5-5-----5---7777----5455----2-5--5-5---|
||--00-0000-00-0000-0-00-0-00000-00-----0000----0000-0-00-0-0--|


               organ            repeat and fade out
|-----------||---------------|---------------------||
|-----------||---------------|---------------------||
|-----------||-2---4---5---4-|-2---4---5---7--5--7-||
|-5-4-5-2-3-||-0---2---3---2-|-0---2---3---5--3--5-||





Comments


Popular Type O Negative tabs & chords
An Ode To Locksmiths Tabs
Can't Lose You 1 Tabs
Christian Woman Tabs
Gravitational Constant Tabs
Halloween In Heaven Tabs
Hey Pete Tabs
Iydkmigthtky (Gimme That) Tabs
She Burned Me Down Tabs
Some Stupid Tomorrow 1 Tabs
Summer Breeze 1 Tabs


Song lyrics



↑ Back to top | Tablatures and chords are parodies/interpretations of the original songs. You may use it for private study, scholarship, research or language learning purposes only
© 2014 AZChords.com Contact us | Privacy policy | DMCA | Add/correct tabs | Request tabs | Top 50 tabs