>
 >
Everything Dies 1

Everything Dies 1 Bass Tabs

Type O Negative - Everything Dies 1 chords, tabs, tablatures, lyrics

Guitar lessons | Add/correct | Request | Top 50 tabs Artists:  A B C D E F G H I J K L M N O P Q R S T U V W X Y Z 0-9

Everything Dies 1 Bass Tabs – Type O Negative

CD, Sheet music, Poster

Do you like Everything Dies 1? Share with your friends now
Bass Tabs
Type O Negative "Everything Dies"
Decomposed by Peter Steele

Tuning: BEADG

Thanks to Ben Wright for tabbing the line from the beginning of the first verse; that got me started on the rest of it.

Intro: guitar for two measures, then bass slides in.
G|--------------------------------|
D|--------------------------------|
A|--------4^----------------------|
E|-----------2-4------------------|
B|-12/-4---------2^-X--X-X--X-X-X-|

G|----------------|
D|----------------|
A|----4^----------|
E|-------2-4------|
B|-4---------2^-X-|				x 2
Main riff:
G|----------------------------|
D|----------------------------|
A|---------------7--7-7-7-9-6-|
E|-4--4-4-4-3-2/--------------|
B|----------------------------|			x 3

G|-------------------------------|
D|-------------------------------|
A|-------------------------------|
E|-7p6-7p6-7p6-6/9-9--9-9-9-9-7\-|
B|-------------------------------|

Play the above combination twice.

Verse riff 1:
G|--------------------------------4h6p4--/11--|
D|-4--/6----------4h6p4--/6---4-6-------------|
A|--------7--2-4-6----------7-----------------|
E|--------------------------------------------|
B|--------------------------------------------|

Vocals and keyboards for two measures, then:

Verse riff 2:
G|-----------------------------------------------------|
D|-----------------------------------------------h11\--|
A|-------------------------------------2h4p2--/9-------|
E|-14/-2--/4-----------2h4p2--/4---2-4-----------------|
B|------------5--0-2-4-----------5---------------------|

G|----------------------------------------|
D|----------------------------------------|
A|---------------------------------2h4p2--|
E|-2--/4-----------2h4p2--/4---2-4--------|
B|--------5--0-2-4-----------5------------|

Chorus (Everything dies...):
G|---------------------------------|
D|---------------------------------|
A|-----------------7-7-7-7---------|
E|-2--2-2-/4-4-4-4\-------/7-7-7-7-|
B|---------------------------------|			x 2

Verse 2: vocals/keyboards for two measures, then verse riff 2:

Play chorus x 4

Bridge (No, why...):
G|-----------------------------------|
D|-----------------------------------|
A|-----------------------------------|
E|-4--4-4-/9-9-9-9\-5-5-5-5-/7-7-7-7-|
B|-----------------------------------|		x 4

Play chorus under guitar/keyboard solo:
G|---------------------------------|
D|---------------------------------|
A|-----------------7-7-7-7---------|
E|-2--2-2-/4-4-4-4\-------/7-7-7-7-|
B|---------------------------------|			x 4

Bridge x 4

Main riff x 1

Verse riff 1 x 1

Chorus x 8

Hold final E then slide up and back down quickly

Ending: guitar (w/ chorus effect) plays through for four measures, then:
G|-------------------------|
D|-------------------------|
A|-------------------------|
E|------5--5-4-------------|
B|-2--2---------0-4-5-4-0--|

G|-------------------------|
D|--------------------2-4--|
A|------------------2------|
E|------5--5-4----4--------|
B|-2--2---------2----------|			x 4





Comments


Popular Type O Negative tabs & chords
I Don't Wanna Be Me Chords
Nettie Chords
All Hallows Eve Tabs
Everyone I Love Is Dead 1 Tabs
Green Man Tabs
Haunted 1 Tabs
Love You To Death Tabs
Nettie 1 Tabs
The Glorious Liberation Tabs
White Slavery Tabs


Song lyrics



↑ Back to top | Tablatures and chords are parodies/interpretations of the original songs. You may use it for private study, scholarship, research or language learning purposes only
© 2014 AZChords.com Contact us | Privacy policy | DMCA | Add/correct tabs | Request tabs | Top 50 tabs