» » »

Type O Negative, Day Tripper Tabs (ver.1)

Artists:  A B C D E F G H I J K L M N O P Q R S T U V W X Y Z # 

Day Tripper Tabs (ver.1)

Type O Negative Tabs
 Rating:
4.3/5 (6 votes)
Day Tripper lessons Tabs too difficult? Try these video lessons and learn fast
                ******************************************************
******************************************************

Type O Negative - Day Tripper

Type-O tuning from low to high (B,E,A,D,F#,B)

 "Daytripper!"
  pm.........|        (3times)          
||---------------------------||-----------------||
||---------------------------||--------------5--||
||---------------------------||-----------------||
||-------------2-0---4---0-2-||-----------7-----||
||-2-2-2---0-2-----2---2-----||-2-2-2---5-------||
||-0-0-0-3-------------------||-0-0-0-----------||

                         (2times)
||----------------------------||
||----------------------------||
||----------------------------||
||-2--------2-0---4---0^2^0^2-||
||-2----0-2-----2---2---------||
||-0--3-----------------------||

"Got a good reason..."
  pm..............................|                      (3rd time only)
||---------------------------------||----------------------------------||
||---------------------------------||----------------------------------||
||---------------------------------||-------------2-0-0-----4-4----0-2-||
||-------------2-0-0-----4-4---0-2-||---------0-2-------2-2-----2------||
||---------0-2-------2-2-----2-----||-0-0-0-3--------------------------||
||-0-0-0-3-------------------------||----------------------------------||

"She was a daytripper..."
      pm.      ...     ...     ...     ...     ...     ...     ...
||-----------------------------------------------------------------|
||-----------------------------------------------------------------|
||-----------------------------------------------------------------|
||--4-------4-------4-------4-------4-------4-------4-------4------|
||--4--4-4--4--4-4--4--4-4--4--4-4--4--4-4--4--4-4--4--4-4--4--4-4-|
||--2--2-2--2--2-2--2--2-2--2--2-2--2--2-2--2--2-2--2--2-2--2--2-2-|

"It took me sooooo  long  to find out    and I found out."
     pm.      ...     ...    ...     ...     ...     ...     ...
||--------------------------------------------------------------------||
||--------------------------------------------------------------------||
||--------------------------------------------------------------------||
||-7-------7-------6-------6------6--6-6--6--6-6--4--4-4--4--4-4------||
||-7--7-7--7--7-7--6--6-6--6--6-6-4--4-4--4--4-4--2--2-2--2--2-2-/12\-||
||-5--5-5--5--5-5--4--4-4--4--4-4-------------------------------------||

                         (2times)
||----------------------------||
||----------------------------||
||----------------------------||
||-2--------2-0---4---0^2^0^2-||
||-2----0-2-----2---2---------||
||-0--3-----------------------||

REPEAT VERSE

BREAK:                       (4times)
||---------------------------------||
||-0-0-0-0-0-0-0-0-0-0-0-0-0-0-0-0-||
||-4-4-4-2-2-6-6-2-4-9-9-8-8-6-6-2-||
||---------------------------------||
||---------------------------------||
||---------------------------------||

"If I needed someone to love, you're the one..."
||----------------------------------------||
||----------------------------------------||
||----------------------------------------||
||-9--9-9---9--9-9--7--7--7--7--7--7-7--7-||
||-9--9-9---9--9-9-\7--7--7--7-/9--9-9--9-||
||-7--7-7---7--7-7-\5--5--5--5-/7--7-7--7-||

BREAK 2:
||---------------------------------||
||---------------------------------||
||-------------------4-4-4-4---4---||
||-------------------2-2-0-0-------||
||-2-2-2-0-0-4-4-0-2---------4---0-||
||---------------------------------||

 "Daytripper!"
  pm.........|        (3times)          
||---------------------------||-----------------||
||---------------------------||--------------5--||
||---------------------------||-----------------||
||-------------2-0---4---0-2-||-----------7-----||
||-2-2-2---0-2-----2---2-----||-2-2-2---5-------||
||-0-0-0-3-------------------||-0-0-0-----------||

REPEAT as above

"She's so...                            heavy..."
||-------------------------------------------------||
||-------------------------------------------------||
||-------------------------------------------------||
||------------------------------7-6-5--7-9---------||
||-------2---4---5---7--9-\-4---5-4-3--5-7-9---5-4-||
||-------0---2---3---5--7-\-2--------------7---3-2-||

Gradually slow down tempo, and repeat till end.
            
Submit corrections

comments powered by Disqus
↑ Back to top | Type O Negative Tabs for Day Tripper. Lyrics for acoustic guitar and electric guitar. Tablatures and chords are parodies/interpretations of the original songs. You may use it for private study, scholarship, research or language learning purposes only