» » »

Type O Negative, Creepy Green Light Tabs (ver.1)

Artists:  A B C D E F G H I J K L M N O P Q R S T U V W X Y Z # 

Creepy Green Light Tabs (ver.1)

Type O Negative Tabs
 Rating:
4.6/5 (9 votes)
Creepy Green Light lessons Tabs too difficult? Try these video lessons and learn fast
                ******************************************************
******************************************************

Type O Negative - Creepy Green Light

Type-O tuning from low to high (B,E,A,D,F#,B)

Bass arr. for guitar
||-----------------------------------------------------|
||-----------------------------------------------------|
||-----X-----------------------------------------------|
||---X---X------------------------------------/8-10----|
||----------8--8-8-8-8-7--7--7-7--3-5-6--6-6--------10-|
||-----------------------------------------------------|


|---------------------------------------------------||
|---------------------------------------------------||
|---------------------------------------------------||
|---------------------------------------------------||
|-(10)\-8--8-8-8-8-7--7--7-7--3-5-6--6-6------------||
|----------------------------------------6-5-3--(3)-||


Band Comes in:
(let ring)
||---------------------------------------------||
||-15----15-13---13-11---11-13---13-15---13----||
||----0--------0-------0-------0-------0----0--||
||---------------------------------------------||
||---------------------------------------------||
||---------------------------------------------||

VERSE:
"On muddy ground I'm lying drunk on her grave"
     pm.                        pm
||---------------------------------------------------||
||---------------------------------------------------||
||---------------------------------10-10-------------||
||10-1010-10-----------7/9--8-8-----8--8-12--12\-----||
||-8--8-8--8-10-10-10--5/6--6-6--X-------10--10\(9)\-||
||------------8--8--8--------------------------------||

"Where I must wait until she wakes"
     pm.                        pm
||---------------------------------------------||
||---------------------------------------------||
||---------------------------------------------||
||10-1010-10-----------7/9--8-8----------------||
||-8--8-8--8-10-10-10--5/6--6-6--X-8-7-5-------||
||------------8--8--8--------------6-5-3--/12\-||

"The soil splits, Greenwood's ground will quake..."
     pm.                        pm
||---------------------------------------------------||
||---------------------------------------------------||
||---------------------------------10-10-------------||
||10-1010-10-----------7/9--8-8-----8--8-12--12\-----||
||-8--8-8--8-10-10-10--5/6--6-6--X-------10--10\(9)\-||
||------------8--8--8--------------------------------||

"And so shall take into the earth"
                          pm..........|
||-----------------------------------------------||
||-----------------------------------------------||
||-----------------------------------------------||
||10-1010-10----------7/8-8-8-8-8-8-8-8--8--8--8-||
||-8--8-8--8-10-10-10-5/6-6-6-6-6-6-6-6--6--6--6-||
||------------8--8--8----------------------------||

CHORUS:
"To the Green light..."
||---------------------------------------||
||---------------------------------------||
||---------------------------------------||
||---------------------------10-12-------||
||10--10-10--9-9--5-7-8--8-8--8-10-10-12-||
||-8--X8--8--7-7--3-5-6--6-6--------8-10-||

||-------------------------------------||
||-------------------------------------||
||-------------------------------------||
||10-10-10--9-9--5-7-8--8-8------------||
||-8--8--8--7-7--3-5-6--6-6-8-7-5--(5)-||
||--------------------------6-5-3--(3)-||

Repeat verse/chorus

"I find myself drawn to her..."
                            (use pinch harm. as necessary)
||------------------------|-----------------|---------------||
||------------------------|-----------------|---------------||
||------------------------|-----------------|---------------||
||-3--3-3--3-3-3/5--5-5-5-|-5-------5-------|-----5---------||
||-1--1-1--1-1-1/3--3-3-3-|---5---3---5^3---|-------3---5^3-||
||------------------------|-----3---------6-|-3-6-----3-----||

KEYS/GUITAR                                                (ring/fdback)
||--------------------------------|---------------------------||
||--------------------------------|---------------------------||
||----------------------------(7)-|---------------------------||
||-10---9--10---7---9---5---7-----|-10---9--10---7---9---5----||
||--8---7---8---5---7---3---5-----|--8---7---8---5---7---3----||
||--------------------------------|---------------------------||

"I find myself drawn to her..."
                            (use pinch harm. as necessary)
||------------------------|-----------------|---------------||
||------------------------|-----------------|---------------||
||------------------------|-----------------|---------------||
||-3--3-3--3-3-3/5--5-5-5-|-5-------5-------|-----5---------||
||-1--1-1--1-1-1/3--3-3-3-|---5---3---5^3---|-------3---5^3-||
||------------------------|-----3---------6-|-3-6-----3-----||
            
Submit corrections

comments powered by Disqus
↑ Back to top | Type O Negative Tabs for Creepy Green Light. Lyrics for acoustic guitar and electric guitar. Tablatures and chords are parodies/interpretations of the original songs. You may use it for private study, scholarship, research or language learning purposes only