» » »

Type O Negative, Cinnamon Girl Bass tabs (ver.1)

Artists:  A B C D E F G H I J K L M N O P Q R S T U V W X Y Z # 

Cinnamon Girl Bass tabs (ver.1)

Type O Negative Tabs
 Rating:
4/5 (4 votes)
Cinnamon Girl lessons Tabs too difficult? Try these video lessons and learn fast
                Type O Negative -  Cinnamon Girl


Tuning low to high B E A D
you only have to drop the bottom 2
strings from standard tuning


Main  1
D------------------------------------------------|
A------------------------------------------------|
E--------2-4--4-4--2-1h2p1p0---------------------|
B--0-2-4----------------------2-4-(4)/9----------|

Main 2              ____________ENDINGS___________
D------------------^----"1st 3"--------^-----------|
A------------------^-------------------^-----------|
E--4-4-4-2-4--4-4--^-2-1h2p1p0---------^-2--1------|
B------------------^------------402-2--^------4--0-|


Verse   played during guitar solo too
D--------------------------------------------------|
A--------------------------------------------------|
E--4-4-4-4-4-4-4-4-6-6-6-6-6-6-6-6-2-2-2-2-2-2-2-2-|
B--------------------------------------------------|

D---------------------------------------------------|
A---------------------------------------------------|
E--4-4-4-4-4-4-4------------------------------------|
B-----------------/14-------------------------------|


Bridge
D------------------------------:-------------------|
A------------------------------:-------------------|
E------------------------------:-------------------|
B--7--7-7-4--4--(play 3x then)-:--9-9-9-9-9-9-9-9--|


outro
D--------------------------------------------------|
A--------------------------------------------------|
E--------------------------------------------------|
B--7-9-9-7-9--9------------------------------------|
            
Submit corrections

comments powered by Disqus
↑ Back to top | Type O Negative Bass for Cinnamon Girl. Lyrics for acoustic guitar and electric guitar. Tablatures and chords are parodies/interpretations of the original songs. You may use it for private study, scholarship, research or language learning purposes only