>
 >
Christian Women 1

Christian Women 1 Bass Tabs

Type O Negative - Christian Women 1 chords, tabs, tablatures, lyrics

Guitar lessons | Add/correct | Request | Top 50 tabs Artists:  A B C D E F G H I J K L M N O P Q R S T U V W X Y Z 0-9

Christian Women 1 Bass Tabs – Type O Negative

CD, Sheet music, Poster

Do you like Christian Women 1? Share with your friends now
Bass TabsBass Tabs v2Tabs
Type O Negative - Christian Woman


|----------------------------------------------------------------------|
|----------------------------------------------------------------------|
|----------------/12\--------------------------------------------------|
|----------------------------------------------------------------------|
                                                                        
                                                                        
||------------------|--------------------|---------------|--------------
||o-----------------|--------------------|---------------|--------------
||o-----------------|--------------------|---------------|--------------
||----5--5--7--7--2-|--2--2--2--/2--/7\--|--5--5--4----2-|-2--2--2--2---
                                                                        

                1st verse                                               
--------------||-------------------------|-----------------------------|
-------------o||o------------------------|-----------------------------|
-/16--/16\---o||o------------------------|-----------------------------|
--------------||--5--5--5--5--7--7--7--7-|-2--2--2--2--2--2--2--2------|
                                                                        
                                                                        
|------------------------|--------------------------||
|------------------------|-------------------------o||
|------------------------|-------------------------o||
|-5--5--5--5--0--0--0--2-|-2--2--2--2--2--2--2--2---||
                                                                        
                                                                        
2nd,3rd verses
|------------------------------|------------------------|---------------
|------------------------------|------------------------|---------------
|------------------------------|------------------------|---------------
|-5--5--5--5--5--7--7--7--7--7-|-2--2--2--2--2--2--2--2-|-5--5--5--5--0-
                                                                        
                                                                        
-----------|------------------------|------------------------|----------
-----------|------------------------|------------------------|----------
-----------|------------------------|------------------------|----------
--0--0--2--|-2--2--2--2--2--2--2--2-|-5--5--5--5--7--7--7--7-|-2--2--2--
                                                                        
                  1.==================================================  
----------------|------------------------|-----------------------------|
----------------|------------------------|--4-----4------4-------------|
----------------|------------------------|---------------------/14\----|
--2--2--2--2--2-|-5--5--5--5--0--0--0--2-|-----2-----2------2----------|
                                                                        
|------------------|----------------|---------------|-------------------|
|------------------|----------------|---------------|-------------------|
|------------------|----------------|---------------|-------------------|
|-5----5----7----2-|--2----/2--/9\--|-5---5---4---2-|-2--2--2--2--2-/9\-|
                                                                        
|---------------|--------------|------------|-----------||--------------
|---------------|--------------|------------|----------o||--------------
|---------------|--------------|------------|--/14\----o||--------------
|-5--5--7--x--2-|-2----2--/7\--|-5--5--4--2-|-----------||--5--5--5--5--

------------|------------------------|
-2--2--2--4-|----4--4--4--4--4--4----|
------------|------------------------|
------------|-2--2--2--2--2--2--2----|
                                                                        
                                                                        
Chorus
|---------------|-------------|---------------|------------|------------
|---------------|-------------|---------------|------------|------------
|-0--0--2-------|-------------|-0--0----------|------------|------------
|----------2--2-|-2--2--2--2--|--------0----2-|-2--2--2--2-|-5--5-----7-
                                                                        
                                                                        
---------|-------------|--------------------|------------|-------------|
---------|-------------|--------------------|------------|-------------|
---------|-------------|--------------------|------------|-------------|
--7----2-|--2--2--2--2-|--5---5---0--0---2--|------------|-------------|
                                                                        
                                                                        
|-----------||---------------------------|-----------------------------|
|-----------||o--------------------------|-----------------------------|
|-----/9\---||o--------------------------|--------------/14\-----------|
|-----------||---5--5--5-----7--7---7--2-|--2--2--2--2-----------------|
                                                                        
                                                                        
|-----------------|-------------------||
|-----------------|------------------o||
|-----------------|------------/7\---o||
|--5--5----4---2--|--2----/2----------||
                                                                        
             Body of Christ...                                          
|-------------------|------------------|-----------------|-------------|
|-------------------|-------4---4------|-----------------|-------------|
|-------------------|------------------|-----------------|-------------|
|--5----5----7---2--|---2-----------2--|--5---5---0----2-|-2--2--2--2--|
                                                                        
                                                                        
|-------------------|-------------------|-------------------|----------|
|-------------------|--4----------4-----|-------------------|----------|
|-------------------|-------------------|-------------------|----------|
|-5--5--5/7--7---2--|------2---2------2-|--5--5--5--0--0--2-|----------|
                                                                        
                                                                        
Interlude
          she'd like to know                  she'd like to know
|----------------|-----------------|--------------||-------------------|
|----------------|-----------------|--------------||o------------------|
|----------------|-----------------|--------------||o----2--------2----|
|----------------|-----------------|--------------||-------------------|
                                                                        
                                                                        
|---------|---------|---------------------||-------------------------|
|---------|---------|--------------------o||-------------------------|
|---------|---------|----------/11-/14\--o||-------------------------|
|--4----4-|--5----5-|-0--0--0-------------||-5--5--5--5--5--5--5--5--|


                           Guitar Solo
|------------------------||-----------------------|--------------------|
|------------------------||o----------------------|--------------------|
|------------------------||o--2--2--2--2--2--2--2-|--------------------|
|-0--0--0--0--0--0--0--0-||-----------------------|-4--4--4--4--4------|
                                                                        
                                                                        
|---------------------|-------------------||---------------------------|
|---------------------|------------------o||--9------------9-----------|
|---------------------|------------------o||---------------------------|
|--5--5--5----5--5--5-|--0--0--0--/5--/7\-||---------------------------|
                                                                        
                                                                        
|--------------|---------------|--------------|-------------|----------|
|---6-------6--|---7-------7\--|----------9\--|-------------|----------|
|--------------|---------------|---7----------|---2---------|----------|
|--------------|---------------|--------------|-------------|----------|
                                                                        
                                                                        
Outro Chorus
   Jesus Christ...
|---------------|------------|----------------|
|---------------|------------|-----5----5-----|
|---------------|----------5-|--5----------5--|
|---------------|------------|----------------|
                                                                        
                                                                        
||--------------------------|-----------------------------|-------------
||o-------------------------|--------------------------5--|-------------
||o--7--7--7--7--7--7--7----|-5--5--5--5--5-------5h7-----|-7--7--7--7--
||------------------------7-|----------------5h7----------|-------------
                                                                        
                                                                        
-------------|------------------------|------------------------|
-------------|-------------9--7--5--4-|------------------------|
--7--7--7----|-5--5--5--5-------------|-7--7--7--7--7--7--7----|
-----------7-|------------------------|----------------------7-|
                                                                        
                                                    1.2.3.4=========    
|------------------------|------------------------|-------------------||
|------------------------|------------------------|----5----5--------o||
|-5--5--5--5--5-----5--3-|-3--3--3--3--3--3--3--5-|-5----------5-----o||
|----------------7-------|------------------------|-------------------||
                                                                        
  5. ===============                                                    
|-----------------------|
|---------5----5--------|
|--5--5-----------5\----|
|-----------------------|
                                                                        
                                                                        

h = hammeron                    Judy Letostak                         
t = tap (right hand)            The Music Shop BBS (619)423-4970 24hrs
~ = vibrato                     * = picked harmonic
bf = bend full                  tr = trill
rb = release bend               p.s. = pick scrape
dive = dive with bar            b = bend / step written over note
The Music Shop BBS (619)423-4970  24hrs
will take anything that can be put on a computer...Lyrics, pictures, sound
Also have a menu for band to put up Biographies, reviews of shows, demos,
gig advertisements, and you can sell your demo/CD here as well...And it's
absolutely FREE!





Comments


Popular Type O Negative tabs & chords
Black Number One Bass Tabs
Black Number One 2 Bass Tabs
My Girlfriend's Girlfriend Bass Tabs
Paranoid 2 Bass Tabs
All Hallows Eve Tabs
Black No 1 Tabs
Bloody Kisses Tabs
Can't Lose You 1 Tabs
Halloween In Heaven Tabs
September Sun Ukulele


Song lyrics



↑ Back to top | Tablatures and chords are parodies/interpretations of the original songs. You may use it for private study, scholarship, research or language learning purposes only
© 2014 AZChords.com Contact us | Privacy policy | DMCA | Add/correct tabs | Request tabs | Top 50 tabs