» » »

Type O Negative, Christan Wonan Tabs (ver.1)

Artists:  A B C D E F G H I J K L M N O P Q R S T U V W X Y Z # 

Christan Wonan Tabs (ver.1)

Type O Negative Tabs
 Rating:
4/5 (4 votes)
Christan Wonan lessons Tabs too difficult? Try these video lessons and learn fast
1
                christian woman
played in B tuning

----------------------------------------------------------------------------
/ slide
P palm mute
~ pick slide
----------------------------------------------------------------------------

Intro
|---------------------------------|
|---------------------------------|
|---------------------------------|
|--5--7--2----5---4---2-----------|  {repeat once}
|--5--7--2----5---4---2-----------|
|--5--7--2----5---4---2-----------|

Verse
   PPPPPPPPPPPPPPPPPPPPPPPPPPPPPPPP
|----------------------------------|
|----------------------------------|
|----------------------------------|   {repeat three times}
|--55557777222222225555000222222222
|--55557777222222225555000222222222
|--55557777222222225555000222222222


   PPPPPPPPPPPPPPPPPPPPP-let ring--
|----------------------------------|                         *
|----------------------------------|{palm mute one open then slowly let ring}
|----------------------------------|
|--555577772222222255550002--------|
|--555577772222222255550002--------|
|--555577772222222255550002--------|
                        *

chorus #1

|----------------------------------|
|----------------------------------|
|----------------------------------|
|--5--7--2-----5---4---2-----------|  {repeat}
|--5--7--2-----5---4---2-----------|
|--5--7--2-----5---4---2-----------|

repeat verse

chorus #2
|------------------------------------|
|------------------------------------|
|------------------------------------|   {repeat}
|--5--7--2-----5---0---2-------------|
|--5--7--2-----5---0---2-------------|
|--5--7--2-----5---0---2-------------|

{keyboard break}
repeat chorus #1 twice
then chorus #2 four times

|----0----------0----0---------0-----0---------0-----0--------0--|
|-------2-3-2-----------2-3-2-----------2-3-2----------2-3-2-----|
|------2------2--------2-----2---------2-----2--------2-----2----|
|--7---------------4---------------5---------------0-------------|{repeat
|----------------------------------------------------------------|  16 times}
|----------------------------------------------------------------|

{arter you repeat it the second time there is a harmonic part that I don't know!}

Solo {after the eleventh repeat of the above tab}

|-------------------------------------|
|-------------------------------------|
|-------------------------------------|
|--3/14-----12-11-12-11---------------|
|-----------------------12------------|
|-------------------------------------|

|--------------------------------------|
|--------------------------------------|
|--------------------------------------|
|--3/14-----12-11-12-11----------------|
|----------------------10--------------| bend whole step twice
|--------------------------------------|


|--------------------------------------------|
|------17-17--15-15---17-17-15-14-15-14------|
|--9/14-----14-----14-------------------14/9-|
|--------------------------------------------|
|--------------------------------------------|
|--------------------------------------------|


|--------------------------------------------------|
|------17-17--15-15---17-17-15-14-15-14------------|
|--9/14-----14-----14-------------------14/9--9/14-|
|--------------------------------------------------|
|--------------------------------------------------|
|--------------------------------------------------|

{jesus christ looks like me}
        PP   PP     P           PP h
|----------------------------------------------------|
|----------------------------------------------------|
|----------------------------------------------------|
|7---------12----12---10-10-10-----------------------|
|7---------12----12---10-10-10---------8-------------|
|7--*---00-12-00-12-0-10-10-10--0010h12--------------|
    *  pick slide


   PP    PP   P
|-----------------------------------------------|
|-----------------------------------------------|
|-----------------------------------------------|
|-----12----12---10--10-10----------------------|
|-----12----12---10--10-10----------------------|
|--00-12-00-12-0-10--10-10--10-bend half step---|

   PP   PP     P
|-------------------------------------------------|
|-------------------------------------------------|
|-------------------------------------------------|
|-----12----12---10--10-10------------------------|
|-----12----12---10--10-10--------8-7-5-3--8-88-3-|
|--00-12-00-12-0-10--10-10---0-10--0-0---0--0-----|

{repeat the above seven times
            
Submit corrections

comments powered by Disqus
↑ Back to top | Type O Negative Tabs for Christan Wonan. Lyrics for acoustic guitar and electric guitar. 1 Tablatures and chords are parodies/interpretations of the original songs. You may use it for private study, scholarship, research or language learning purposes only