» » »

Type O Negative, Black Sabbath Tabs (ver.1)

Artists:  A B C D E F G H I J K L M N O P Q R S T U V W X Y Z # 

Black Sabbath Tabs (ver.1)

Type O Negative Tabs
Rating:
0/5 (0 votes)
Black Sabbath lessons Tabs too difficult? Try these video lessons and learn fast
                Type O Negative - Black Sabbath
The Least Worst Of


Please this is my first tab so go easy! 
Didnt see it anywhere so I thought I would give it a try. 
I'm pretty sure its right!



Tuning: B Standard ( B E A D F# B )


 / - slide
sb - slight bend
pm - palm mute
tr - trill
( )- optional note


-Intro and after each verse   You dont need to play anything for each verse


---|-----------------------------------|
---|-----------------------------------|
---|--4--4sb-------/---4--4sb----------|
---|--4------2tr3--/---4------2tr3-----| x2
---|--2------------/---2---------------|
---|-----------------------------------|

- Breakdown


  pm -------------------------------------|
---|--------------------------------------|
---|--------------------------------------|
---|--------------------------------------|
---|---------2-4-5-4-2---2-4--------------| x4
---|-2-2-2-5-----------5------------------|
---|--------------------------------------|


This bit is played after the forth breakdown and played again after the breakdown is played twice.
Let each chord ring.


---|-----------------------------------|
---|-----------------------------------|
---|-9----7----5----12-----------------|
---|-7----5----5----10-----------------|
---|(7)--(5)--(5)--(10)----------------|
---|-----------------------------------|

- Bridge


pm   . . . .            . .       . . . .          . .
---|--------------------------------------------------------------|
---|--------------------------------------------------------------|
---|-4-4-4-4--4--4----2-2-2--7------------------------------------|
---|-4-4-4-4--4--4----2-2-2--7-7--6-6-6-6--6--6--5-5-5--4--7------| x4
---|-2-2-2-2--2--2----0-0-0--5-7--6-6-6-6--6--6--5-5-5--4--7------|
---|---------------------------5--4-4-4-4--4--4--3-3-3--2--5------|

- Slow Bridge


---|-----------------------------------|
---|-----------------------------------|
---|-6--4--3---------------------------|
---|-6--4--3---9/8\9/8\9/8\9--11-------| x2
---|-4--2--1---7/6\7/6\7/6\7--9--------|
---|-----------------------------------|


---|-----------------------------------|
---|-----------------------------------|
---|-6--4--3---9/8\9/8\9/8\9--11-------|
---|-4--2--1---7/6\7/6\7/6\7--9--------| play until song finishes
---|-----------------------------------|
---|-----------------------------------|


This next part comes in when Peter stops singing and it is sung quietly
I'm not sure what the effects Kenny uses are but here are the notes.


---|-----------------------------------|
---|-----------------------------------|
---|----------------------6-9----------|
---|-7-6-4--7-6-4--7-6-4------9--------|
---|-----------------------------------|
---|-----------------------------------|

Thats it! If i have missed stuff or something you think is worng...please e-mail me!! 
I dont want people playing the wrong thing!!
            
Submit corrections

comments powered by Disqus
↑ Back to top | Type O Negative Tabs for Black Sabbath. Lyrics for acoustic guitar and electric guitar. Tablatures and chords are parodies/interpretations of the original songs. You may use it for private study, scholarship, research or language learning purposes only