» » »

Black No Bass tabs (ver.4)

Artists:  A B C D E F G H I J K L M N O P Q R S T U V W X Y Z # 

Black No Bass tabs (ver.4)

Type O Negative
Rating:
0/5 (0 votes)

Tabs too difficult? Try these video lessons and learn fast.
                "(1)
Type O Negative - Black no. 1 (Little Miss Scare-All) 
 

*
*  REPEAT ONE TIME IF NOT NOTED

/ = Slide up
\ = Slide Down
x = Dead Note/slid 2 frets
~ = Let Note Ring



              Main                            end of every 3rd rotation
G|--------|---------------------------------|-----------------------------|
D|--------|*-------------------------------*|-----------------------------|
A|--------|*----------------2-2-2-2-0-0----*|-----------------------5-----|
E|-12\16/x|--0-0-0-0-3-3-3-3-----------3--5-|-0-0-0-0-3-3-3-3--5--7---6--5|

Chorus You Can't Go Out   x3
G|----------------------------|----------------------------------|
D|*--------------------------*|----------------------------------|
A|*--------------------------*|-------------------7--------------|
E|-/14--2-2---5-5--9-9--7-7---|--2-2~--5-5--7--9------8--7-------|

Bridge                                x3
G|------------------------------------|-----------------|
D|*----------------------------------*|-----------------|
A|*----------------------------------*|-----------------|
E|-5-5-5-5--7-7-7-7--2-2-2-2-2--0--0--|----5---7---2----|

Outro                                      drum beat
G|-----------------------------------|-------------------------------|
D|*---------------------------------*|-------------------------------|
A|*---------------------------------*|-------------------------------|
E|--0~-----3~-----5~------/12-----5--|--/12-12-12-12-12-12-12-12-12--|
"            
Tabs too difficult? Try these video lessons and learn fast.




comments powered by Disqus
↑ Back to top | Tablatures and chords are parodies/interpretations of the original songs. You may use it for private study, scholarship, research or language learning purposes only