» » »

Type O Negative, An Ode To Locksmiths Tabs (ver.2)

Artists:  A B C D E F G H I J K L M N O P Q R S T U V W X Y Z # 

An Ode To Locksmiths Tabs (ver.2)

Type O Negative Tabs
 Rating:
4/5 (4 votes)
An Ode To Locksmiths lessons Tabs too difficult? Try these video lessons and learn fast
                                =========TYPE O NEGATIVE=========

                =======AN ODE TO LOCKSMITHS======

This is a song of Type O Negative from their 2007 studio album Dead Again. It's an 
song, equally awesome to play.

Legend:
h- hammer-on
p- pull- off
/- slide up
\- slide down
x- dead note


Riff 1:
1|----------------------------------------|
2|----------------------------------------|
3|----------------------------------------|
4|--------------------------5-------------|
5|-5h6h7--------5h6h7-5h6h7---7--7-5h6h7--|
6|-------0--0--7--------------------------|

Riff 2:

1|----------------------------------------|
2|----------------------------------------|
3|-4-----------4--------------------------|
4|-4-----9-----4-----9------5-------------|
5|-2-----7-----2-----7--5h7---7p5---------|
6|--------------------------------7-------|

Riff 3:

1|-----------------------------------------------------|
2|-----------------------------------------------------|
3|-44444444------------44444444------------------------|
4|-44444444--99999999--44444444--99999999------5-------|
5|-22222222--77777777--22222222--77777777--5h7---7p5---|
6|---------------------------------------------------7-|

Riff 4:

1|-------------------------------------------|
2|-------------------------------------------|
3|-------------------------------------------|
4|-\9--------------------\9------------------|
5|-----7h9p7--5---5-2\5------7h9p7--5--2-2-2-|
6|-------------------------------------0-0-0-|

Riff 5:

1|-----------------------------------------|
2|-----------------------------------------|
3|-7\-9--9--7\-9--9------------------------|
4|-7\-9--9--7\-9--9--2---2---5\-7--x--x----|
5|-5\-7--7--5\-7--7--2---2---5\-7--x--x----|
6|-------------------0---0---3\-5--x--x----|

Riffs 6:

1|-----------------------------------------|
2|-----------------------------------------|
3|-----------------------------------------|
4|-----------------------------------------|
5|--------0---2---3---4---5---6---7/-------|
6|-0----0---0---0---0---0---0---0----------|

1|-----------------------------------------|
2|-----------------------------------------|
3|-----------------------------------------|
4|----------------------------5------------|
5|----4--7--------------4--7-----7---------|
6|-5--------0--0--7--5---------------------|

Song Structure:

Riff 1: x8
Riff 2: x2
Riff 3: x1
Riff 2: x1
Riff 1: x4
Riff 2: x2
Riff 3: x1
Riff 2: x1
Riff 1: x4
Riff 4: x2
Riff 5: x8
Riff 4: x2
Riff 5: x8
Play riffs: 6 alternately till the end
            
Submit corrections

comments powered by Disqus
↑ Back to top | Type O Negative Tabs for An Ode To Locksmiths. Lyrics for acoustic guitar and electric guitar. Tablatures and chords are parodies/interpretations of the original songs. You may use it for private study, scholarship, research or language learning purposes only