» » »

Type O Negative, An Ode To Locksmiths Tabs (ver.1)

Artists:  A B C D E F G H I J K L M N O P Q R S T U V W X Y Z # 

An Ode To Locksmiths Tabs (ver.1)

Type O Negative Tabs
 Rating:
4.2/5 (5 votes)
An Ode To Locksmiths lessons Tabs too difficult? Try these video lessons and learn fast
1
                "An Ode to Locksmiths"
Tune guitars 2.5 steps below standard
Low to High:  B,E,A,D,F#,b

NOTES:  First and second part of song are in triplet feel

^=hammer-on, pull-offs; +=bend and release

I.  MAIN RIFF/INTRO (4 times)
                                    
b ||--------------------------------------|
F#||--------------------------------------|
D ||-------------------------2------------|
A ||-2^3^4-------------2^3^4---4--4-2^3^4-|
E ||-----------0-2^3^4--------------------|
B ||-------2-2----------------------------|

|--------------------------------------||
|--------------------------------------||
|-------------------------2------------||
|-2^3^4-------------2^3^4---4----------||
|-----------0-2^3^4--------------------||
|-------2-2--------------------2-/12\--||

VERSE:
"Been given the key..."
"Careful what you're..."
||--------------------------------------------||
||--------------------------------------------||
||-4-------4-------4-------4----------2-------||
||-4-------2-------4-------2------2^4---4-2^0-||
||-2-------0-------2-------0------------------||
||--------------------------------------------||

"Thy rod and thy staff..."
(Half-time feel)
||------------------------------------------------||
||------------------------------------------------||
||-4-4-4--4-4---4-4-4--4-4-4--4-4---4-----2-------||
||-4-4-4--4-2---2-2-2--4-4-4--4-2---2-2^4---4-2^0-||
||-2-2-2--2-0---0-0-0--2-2-2--2-0---0-------------||
||------------------------------------------------||

"An earful..."
||--------------------------------------------||
||--------------------------------------------||
||-4-------4-------4-------4----------2-------||
||-4-------2-------4-------2------2^4---4-2^0-||
||-2-------0-------2-------0------------------||
||--------------------------------------------||

REPEAT INTRO (2 times)

REPEAT VERSE

REPEAT INTRO (2 times)

II.  BRIDGE:
                                             (2 times)
||----------------------------------------------||
||----------------------------------------------||
||-4^6----------------------4^6-----------------||
||------4+(4)-2---2^4-----------4+(4)-2---X-X-X-||
||--------------------2/4-----------------X-X-X-||
||----------------------------------------X-X-X-||

"Woe to the all women"
"Of land, air & sea..."
"Adam was..."
"Apple 'tween..."
                         (8 times)
||---------------------------||
||---------------------------||
||-4^6-6-4^6-4---------------||
||-4---4-4---4-4---4-2^4-----||
||-------------2---2-2---X-X-||
||-----------------------X-X-||

                                             (2 times)
||----------------------------------------------||
||----------------------------------------------||
||-4^6----------------------4^6-----------------||
||------4+(4)-2---2^4-----------4+(4)-2---X-X-X-||
||--------------------2/4-----------------X-X-X-||
||----------------------------------------X-X-X-||

"From the tree of knowledge"
"A metaphor..."
etc...
                         (8 times)
||---------------------------||
||---------------------------||
||-4^6-6-4^6-4---------------||
||-4---4-4---4-4---4-2^4-----||
||-------------2---2-2---X-X-||
||-----------------------X-X-||


III.  ENDING:
                                (8 times)
||-----------------------------------||
||-----------------------------------||
||-----------------------------------||
||-----------------------------------||
||-----------------------------------||
||-0-0-3-0-5-0-6-0-7-0-10-0-11-0-12\-||

"We ain't goin' home got no where to go"                 (3times)
||----------------------------------------------------------||
||----------------------------------------------------------||
||-----0-------------6--------------------------------------||
||---2-------0---4/----7\-----------------------------------||
||-3-------2---5--------------------------------------------||
||-------3----------------0-0-3-0-5-0-6-0-7-0-10-0-11-0-12\-||

"We ain't goin' home...."        (4th time only)
||------------------------------------||
||------------------------------------||
||-----0------------------------------||
||---2-------0--7-7-7-7-7-7-7\--------||
||-3-------2----5-5-5-5-5-5-5\--------||
||-------3-----------------------/12\-||

"...no where to go..."
||-----------------------------------||
||-----------------------------------||
||-----------------------------------||
||-----------------------------------||
||-----------------------------------||
||-0-0-3-0-5-0-6-0-7-0-10-0-11-0-12\-||
            
Submit corrections

comments powered by Disqus
↑ Back to top | Type O Negative Tabs for An Ode To Locksmiths. Lyrics for acoustic guitar and electric guitar. 1 Tablatures and chords are parodies/interpretations of the original songs. You may use it for private study, scholarship, research or language learning purposes only