>
 >
Anesthesia

Anesthesia Guitar Tabs

Type O Negative - Anesthesia chords, tabs, tablatures, lyrics

Guitar lessons | Add/correct | Request | Top 50 tabs Artists:  A B C D E F G H I J K L M N O P Q R S T U V W X Y Z 0-9

Anesthesia Guitar Tabs – Type O Negative

CD, Sheet music, Poster

Do you like Anesthesia? Share with your friends now
Tabs
-------------------------------------------------------------------------------
-------------------------------------------------------------------------------

Tuning: B,E,A,D,F#,b

INTRO:
Bass/vocals/keys only

MAIN, FULL BAND COMES IN:

                                     "Despair"
  fdbk                            (2times)    
b ||----------------------------------------|------------||
F#||------10----10---(10)--10----10----10---|------------||
D ||-------7-----7----(7)---7-----7-----7---|------------||
A ||-------8-----8----(8)---0-----0-----0---|------------||
E ||--X-------------------------------------|------------||
B ||-X-/-\----------------------------------|-------/12\-||

VERSE:
"Did one...        'tis better to..."
"Ignorance is...   wish not..."
||--------------------------------------||
||--------------------------------------||
||-3---3-3---3-3-3-3-3/7-7---7-7-7-7-7\-||
||-3---3-3---3-3-3-3-3/7-7---7-7-7-7-7\-||
||-1---1-1---1-1-1-1-1/5-5---5-5-5-5-5\-||
||--------------------------------------||

"So many times..."                         (rpt)
                      |          pm..........|
||--------v--------v--------v---|---------|---||
||-----15-------15-------13-----|---------|---||
||---14-------12-------12-------|---------|-%-||
||-12-------12-------10---------|-7-7-7-7-|-%-||
||------------------------------|-5-5-5-5-|---||
||------------------------------|---------|---||

                             "Liar"
                            (2times)    
||-----------------------------------|------------||
||-10----10---(10)--10----10----10---|------------||
||--7-----7----(7)---7-----7-----7---|------------||
||--8-----8----(8)---0-----0-----0---|------------||
||-----------------------------------|------------||
||-----------------------------------|-------/12\-||

"Betwixt birth and death..."
"I pity the living..."
||--------------------------------------||
||--------------------------------------||
||-3---3-3---3-3-3-3-3/7-7---7-7-7-7-7\-||
||-3---3-3---3-3-3-3-3/7-7---7-7-7-7-7\-||
||-1---1-1---1-1-1-1-1/5-5---5-5-5-5-5\-||
||--------------------------------------||

"Emotionally stunned...                               (rpt)
                      |          pm..........|
||--------v--------v--------v---|---------|---||
||-----15-------15-------13-----|---------|---||
||---14-------12-------12-------|---------|-%-||
||-12-------12-------10---------|-7-7-7-7-|-%-||
||------------------------------|-5-5-5-5-|---||
||------------------------------|---------|---||

CHORUS:
                                   "I don't need love"
                                   "I don't need love"
                             +=fullstepbend
||-------------------------15---(15)\-|---------------------------------||
||-------------------------17+--------|---------------------------------||
||------------------------------------|-----------------------------0---||
||-----5-------5-------5--------------|-----5-------5-------5-------5---||
||-----5-------5-------5--------------|-----5-------5-------5-------5---||
||-3-3---3-5-5---5-6-6---6----------\-|-3-3---3-5-5---5-6-6---6/8-8---\-||

REPEAT INTRO BASSLINE

REPEAT CHORUS

BRIDGE:
                                     (2times)
||---------------------------------------------------||
||---------------------------------------------------||
||-14--14-14---14-14-14--14-14------14---------14----||
||-14--14-14---14-14-14--14-14---12-12------12-12----||
||-12--12-12---12-12-12--12-12^14-----14--10------10-||
||---------------------------------------------------||

"Are 10thousand yrs..."
"When you give an inch..."
 light pm..........................|              
||----------------------------------||
||----------------------------------||
||----------------------------------||
||-7--7-7--7-7-7-7-7----7-------7---||
||-7--7-7--7-7-7-7-7--5-5-----5-5---||
||-5--5-5--5-5-5-5-5^7----7-3-----3-||

"Longing for the past..."
"If not being used..."
 light pm...............|              
||----------------------------------||
||----------------------------------||
||----------------------------------||
||-7--7-7--7-7-7-7-7----7-------7---||
||-7--7-7--7-7-7-7-7--5-5-----5-5---||
||-5--5-5--5-5-5-5-5^7----7-3-----3-||


BREAKDOWN:
  (let ring throughout)
||----------------------------------------------|
||-----12---------12----------12----------12----|
||----------------------------------------------|
||-9-9----9-------------------------------------|
||----------12-12----12-11-11----11-10-10----10-|
||----------------------------------------------|

|----------------------------------------------||
|-----12---------12----------12----------12----||
|----------------------------------------------||
|----------------------------------------------||
|-9-9----9-------------------------------------||
|----------12-12----12-10-10----10-12-12----12-||

REPEAT BRIDGE

REPEAT BREAKDOWN:
  "I don't feel anything..."
||----------------------------------------------|
||-----12---------12----------12----------12----|
||----------------------------------------------|
||-9-9----9-------------------------------------|
||----------12-12----12-11-11----11-10-10----10-|
||----------------------------------------------|

|----------------------------------------------||
|-----12---------12----------12----------12----||
|----------------------------------------------||
|----------------------------------------------||
|-9-9----9-------------------------------------||
|----------12-12----12-10-10----10-12-12----12-||


  "I don't feel anything..."
||----------------------------------------------|
||-----12---------12----------12----------12----|
||----------------------------------------------|
||-9-9----9-------------------------------------|
||----------12-12----12-11-11----11-10-10----10-|
||----------------------------------------------|

                    "...anything, anything,      no."
|--------------------------------------------------------||
|-----12---------12--------------------------------------||
|--------------------------------------------------------||
|----------------------12-12---12-12/14-14--14---\-9-----||
|-9-9----9-------------12-12---12-12/14-14--14---\-9-----||
|----------12-12----12-10-10---10-10/12-12--12---\-7-----||




| /  slide up
| \  slide down
| h  hammer-on
| p  pull-off
| ~  vibrato
| +  harmonic
| x  Mute note
===============================================================================





Comments


Popular Type O Negative tabs & chords
All Hallows Eve Bass Tabs
Can't Lose You Bass Tabs
Christian Women Bass Tabs
Cinnamon Girl Bass Tabs
My Girlfriend's Girlfriend Bass Tabs
Everyone I Love Is Dead 1 Tabs
Summer Breeze Tabs
These Three Things Tabs
Wolf Moon 1 Tabs
Xero Tolerance Tabs


Song lyrics



↑ Back to top | Tablatures and chords are parodies/interpretations of the original songs. You may use it for private study, scholarship, research or language learning purposes only
© 2014 AZChords.com Contact us | Privacy policy | DMCA | Add/correct tabs | Request tabs | Top 50 tabs