» » »

Type O Negative, All Hallows Eve Tabs (ver.1)

Artists:  A B C D E F G H I J K L M N O P Q R S T U V W X Y Z # 

All Hallows Eve Tabs (ver.1)

Type O Negative Tabs
 Rating:
4.2/5 (5 votes)
All Hallows Eve lessons Tabs too difficult? Try these video lessons and learn fast
                ******************************************************
******************************************************

Type O Negative - All Hallows Eve

Type-O tuning from low to high (B,E,A,D,F#,B)"Hallow's   Eve.."
           (2 times)||--------|-----------------------/17-(17)\-|
||--------|---------------------------------|
||--------|---------------------------------|
||--------|---------------------------------|
||--------|-7---7--8--9-10-/12--------------|
||--------|-5---5--6--7--8-----12-----------|

                  pm.
|-------------------------||
|-------------------------||
|-------------------------||
|-------------------------||
|-3---3--4--5--(6)-5-5--5-||
|-1---1--2--3--(4)-4-4--4-||

"Cruel be the wind..."
                                (2 times)
||---------------------------------|---------||
||---------------------------------|---------||
||---------------------------------|---------||
||---------------------------------|---------||
||-7--7--/10--10-10--\-3--3---2--2-|-2-(5)-/-||
||-5--5--/-8---8--8--\-1--1---0--0-|-0-(3)-/-||

"From deep Earth brings forth rebirth..."     
     pm..........|       pm.........|
||--------------------------------------
||--------------------------------------
||--------------------------------------
||--------------------------------------
||-7--7-7-7-7-7-7-7-7\-5--5-5-5-5-5-5-5-
||-5--5-5-5-5-5-5-5-5\-3--3-3-3-3-3-3-3-

"...witness that I shant believe"
      pm......|         pm....|
----------------------------------------||
----------------------------------------||
----------------------------------------||
----------------------------------------||
-5\-3--3-3-3-3-3-3--3\-2--2-2-2-2-------||
-3\-1--1-1-1-1-1-1--1\-0--0-0-0-0--/8-7-||

"From below a chilling..."
||------------------------------------||
||------------------------------------||
||------------------------------------||
||------------------------------------||
||-7--7--/10--10-10--\-3--3---2--2--2-||
||-5--5--/-8---8--8--\-1--1---0--0--0-||

"Hallow's   Eve.."           (2 times)
||--------|-----------------------/17-(17)\-|
||--------|---------------------------------|
||--------|---------------------------------|
||--------|---------------------------------|
||--------|-7---7--8--9-10-/12--------------|
||--------|-5---5--6--7--8-----12-----------|

                  pm.
|-------------------------||
|-------------------------||
|-------------------------||
|-------------------------||
|-3---3--4--5--(6)-5-5--5-||
|-1---1--2--3--(4)-4-4--4-||

REPEAT VERSE
"Hallow's   Eve.."
           pm........|                   (2 times)
||--------|--------------------------------||
||--------|--------------------------------||
||--------|--------------------------------||
||--------|--------------7\----7----7------||
||--------|-7-7-7-7-7-7--------------------||
||--------|-5-5-5-5-5-5------3----3----0-3-||

"Saint Lucifer..."
                  (4 times)
||-----------------------||
||-----------------------||
||-----------------------||
||-7--7--5--5--4--(4)--7-||
||-5--5--3--3--2-------5-||
||-----------------3-----||

"Cold is the night..."
||-X--------||
||---X------||
||----------||
||----------||
||----------||
||----------||

CHORUS w/ background solo...
               (+=1/2 step bend)
||------|-14--14-+-(14)-14-15-17-----||
||--/15-|-------------------------15-||
||------|----------------------------||
||------|----------------------------||
||------|----------------------------||
||------|----------------------------||

"Hallow's   Eve.." 
          pm........|                   (4 times)
||--------|--------------------------------||
||--------|--------------------------------||
||--------|--------------------------------||
||--------|--------------7\----7----7------||
||--------|-7-7-7-7-7-7--------------------||
||--------|-5-5-5-5-5-5------3----3----0-3-||

OUTRO:repeat random soloing...
||---------------||
||---------------||
||---------------||
||-----7------/9-||
||---------------||
||-7-------5-----||
            
Submit corrections

comments powered by Disqus
↑ Back to top | Type O Negative Tabs for All Hallows Eve. Lyrics for acoustic guitar and electric guitar. Tablatures and chords are parodies/interpretations of the original songs. You may use it for private study, scholarship, research or language learning purposes only