>
 >
All Hallows Eve

All Hallows Eve Bass Tabs

Type O Negative - All Hallows Eve chords, tabs, tablatures, lyrics

Guitar lessons | Add/correct | Request | Top 50 tabs Artists:  A B C D E F G H I J K L M N O P Q R S T U V W X Y Z 0-9

All Hallows Eve Bass Tabs – Type O Negative

CD, Sheet music, Poster

Do you like All Hallows Eve? Share with your friends now
Bass TabsTabs
Type O Negative -  All Hallow's Eve 
off the World Coming Down Album in 1999
 




Intro

|--------------------------------|
|--------------------------------|
|--------------------------------|
|--(0)---(0)-------000000--------|   

|------------77----77-------------|
|---------------------------------|
|---------------------------------|
|----/5 555------5-----5-7-3-0----|

|------------77----7~~~~----------|
|---------------------------------|
|---------------------------------|
|----/5 555------5----------------|

|------------------------------|
|------------------------------|
|------------------------------|
|----55555/ 777777/11111/0000--|

|------------77----77----------|
|------------------------------|
|------------------------------|
|----/5 555------5-----5-7-3-0-|

Riff A
|---------------------------------|
|---------------------------------|
|-----------------12--------------|
|-5---5--6--7--8-----12-----------|

|---------------------------------|
|---------------------------------|
|---------------------------------|
|-5---5--6--7--8------------------|

|-------------------------|
|-------------------------|
|-------------------------|
|-1---1--2--3--(4)-4-4--4-|


Verse play 2 times

|---------------------------------|
|---------------------------------|
|---------------------------------|
|-5--5--/-8---8--8--\-1--1---0--0-| 



|--------------------------------------|
|--------------------------------------|
|--------------------------------------|
|-5--5-5-5-5-5-5-5-5\-3--3-3-3-3-3-3-3-|

|----------------------------------------|
|----------------------------------------|
|----------------------------------------|
|-3\-1--1-1-1-1-1-1--1\-0--0-0-0-0--/8-7-|


|------------------------------------------|
|------------------------------------------|
|------------------------------------------|
|-5--5--/-8---8--8--\-1--1---0--00---------|


Riff A x2

Verse


|---------------------------------------|
|---------------------------------------|
|---------------------------------------|
|----------5--5-5-5-5-5----0-3---0-3----|



|---------------------------------------|
|---------------------------------------|
|---------------------------------------|
|--10-10-10-10-7-7-7-7-3-3-3-3-5-5-5-5--|




|------------------------------|
|------------------------------|
|------------------------------|
|----55555/ 777777/11111/0000--|



|---------------------------------------|
|---------------------------------------|
|---------------------------------------|
|----------5--5-5-5-5-5----0-3---0-3----|



|---------------------------------------|
|---------------------------------------|
|---------------------------------------|
|--10-10-10-10-7-7-7-7-3-3-3-3-5-5-5-5--|


|---------------------------------------|
|---------------------------------------|
|---------------------------------------|
|----------5--5-5-5-5-5----0-3---0-3----|

part for guitar solo

|---------------------------------------|
|---------------------------------------|
|---------------------------------------|
|--10-10-10-10-7-7-7-7-3-3-3-3-5-5-5-5--|



|---------------------------------------|
|---------------------------------------|
|---------------------------------------|
|--10-10-10-10-7-7-7-7-3-3-3-3-5-5-5-5--|


|---------------------------------------|
|---------------------------------------|
|---------------------------------------|
|----------5--5-5-5-5-5----0-3---0-3----|



|-----------------------------------|
|---/-7-/12---12-11-----12-11-------|
|------------------12--------12-----|
|-----------------------------------|





Comments


Popular Type O Negative tabs & chords
Bloody Kisses Bass Tabs
My Girlfriends Girlfriend Bass Tabs
To Latefrozen Bass Tabs
All Hallows Eve Tabs
Green Man Tabs
I Don't Wanna Be Me 2 Tabs
I Dont Wanna Be Me 3 Tabs
Life Is Killing Me Tabs
My Girlfriend's Girlfriend Tabs
Red Water Tabs


Song lyrics



↑ Back to top | Tablatures and chords are parodies/interpretations of the original songs. You may use it for private study, scholarship, research or language learning purposes only
© 2014 AZChords.com Contact us | Privacy policy | DMCA | Add/correct tabs | Request tabs | Top 50 tabs