>
 >
Will You Ever Learn

Will You Ever Learn Guitar Tabs

Typecast - Will You Ever Learn chords, tabs, tablatures, lyrics

Guitar lessons | Add/correct | Request | Top 50 tabs Artists:  A B C D E F G H I J K L M N O P Q R S T U V W X Y Z 0-9

Will You Ever Learn Guitar Tabs – Typecast

CD, Sheet music, Poster

Do you like Will You Ever Learn? Share with your friends now
ChordsChords v2Chords v3TabsTabs v2Tabs v3Ukulele
Album:Every Moss and Cobweb
              09229015724(Sun Cell)

For your questions or suggestions,just post in friendster comment,PM or mail me.

Please check out my band's profile as well=)


Gtr.Legends:
/\ - slide
h  - hammer-on
p  - pull-off
v  - vibrato
.  - palm muting
~  - let it ring
*  - artificial harmonics
x  - dead string or scratching

Gtr.Tuning:Drop D(Alternative)

Verse 1:
Gtr.1
So whats..  When you..   The days...   Should I...  Could I be..
e|-2222---  -2222------  -000000-----  -000000----  -222222~---|
B|-3333---  -2222------  -222222-----  -000000----  -333333~---| Listen to the song well to
G|-2222---  -2222------  -222222-----  -222222----  -000000~---| get the timing...
D|-0000---  -0000------  -222222-----  -xxxxxx----  -----------|
A|--------  -----------  ------------  -222222----  -----------|
D|--------  -----------  ------------  -----------  -----------|

Gtr.2:
e|-------12-----------12-----------12----12h14-12------------|
B|-10-10-----10-10-10-----10-10-10----10-----------14-14h15--| 3x
G|-----------------------------------------------------------| Then
D|-----------------------------------------------------------|
A|-----------------------------------------------------------|
E|-----------------------------------------------------------|

-------12-----------12-----------12-----------|
-10-10-----10-10-10-----10-10-10-----10-10~---|
----------------------------------------------|
----------------------------------------------|
----------------------------------------------|
----------------------------------------------|

Refrain:I did it all...
Gtr.1
e|-2222222----------------------------------|
B|-3333333--333333--------------------------|
G|-2222222--222222--4444444-----------------|
D|-0000000--222222--4444444--5555/4\55555---|
A|----------000000--2222222--5555/4\55555---|
D|---------------------------5555/4\55555---|

Gtr.2
e|-------------------------------------------|
B|-------------------------------------------|
G|------------------------9-7----------------|
D|-0000000--777777--99999-x-x-5555/4\55555---|
A|-0000000--777777--99999-7-5-5555/4\55555---|
D|-0000000--777777--99999-----5555/4\55555---|


Pre-Chorus:
Gtr.1:
But you...   About your...
e|-----------------------|
B|-----------------------|
G|-----------------------| 2x
D|-44444444--555555555---|
A|-44444444--555555555---|
D|-44444444--555555555---|

Gtr.2:
e|----------------------------------------------------------------------------------------|
B|-----2---2--2--2--------2---2--2---2---------3-----3---3---3---3--------3---3---3---3---|
G|-222---2--2--2---2--222---2--2---2---2---222----2----2---2---2---2--222---2---2---2--2--|
D|----------------------------------------------------------------------------------------|
A|----------------------------------------------------------------------------------------|
D|----------------------------------------------------------------------------------------|

--------------------------------------|
-----2---2--2---2---------------------| Listen to the song well
-222---2--2---2---2----------6666/7---| to get the timing...
---------------------555555--xxxx-x---|
---------------------555555--4444/5---|
---------------------555555-----------|

Chorus 1:Unlonely nights...
e|--------------------------------------|
B|--------------------------------------|
G|--------------------------------------| 2x
D|-0000000--777777--9999999--55555555---|
A|-0000000--777777--9999999--55555555---|
E|-0000000--777777--9999999--55555555---|

Pre-Verse 2:
Gtr.1
e|----------------------------------------------|
B|----------------------------------------------|
G|----------------------------------------------|
D|-0~~~~~~~~~~~~~~~~~~~~~~~~--0~~~~~~~~~~~~~~---|
A|-0~~~~~~~~~~~~~~~~~~~~~~~~--0~~~~~~~~~~~~~~---|
D|-0~~~~~~~~~~~~~~~~~~~~~~~~--0~~~~~~~~~~~~~~---|

e|--------------------------------------------------|
B|--------------------------------------------------|
G|----7-----7p6-7p6-------------7----7p6-7p7--------|
D|-0~---------------7-9-------0~-------------7*-----|
A|------7~--------------7-9~------7~-----------7*---|
D|--------------------------------------------------|

Verse 2:You know me well...
Play Refrain

Repeat Refrain:

Repeat Pre-Chorus:
But what about...
Gtr.1             Gtr.2
e|--------------  -----------------------|
B|--------------  -----------------------|
G|--------------  ------10/11111111/12---|
D|-55555555555--  -5555--x--x-x-x-x-xx---|
A|-55555555555--  -5555--8/-9-9-9-9/10---|
D|-55555555555--  -5555------------------|

Repeat Chorus 1:

Chorus 2:The perfect dates...
Play Chorus 1

Bridge(Gtr.Adlib):
Gtr.1
e|----------------------------------------------|
B|----------------------------------------------|
G|----------------------------------------------| Then
D|-0~~~~~~~~~~~~~~~~~~~~~~~~--0~~~~~~~~~~~~~~---|
A|-0~~~~~~~~~~~~~~~~~~~~~~~~--0~~~~~~~~~~~~~~---|
D|-0~~~~~~~~~~~~~~~~~~~~~~~~--0~~~~~~~~~~~~~~---|

e|------------------------------------------------------|
B|------------------------------------------------------|
G|------------------------------------------------------| 6x
D|-----------------000000-------------------------------|
A|-5\4--2/4--3/5---000000----5/4--2\4--3/5--------------|
D|-----------------000000-------------------4-5-2-4-2---|
                   xxxxxx

Gtr.2
e|---------------------------------------------------------------|
B|---------------------------------------------------------------|
G|--------------------------7b-----------------------------------| 6x
D|------------------3-4-5/7--------------------------------------|
A|--5\4---2/4---4/5---------------5/4---2\4---4/5----------------|
D|-0----0-----0-----------------0------0----0--------5-4-2-4-2---|
   .    .     .                 .      .    .

e|---------------------------|
B|---------------------------|
G|---------------------------|
D|-------------5-4-2-4-5-4---|
A|---5\4--2/4--5-4-2-4-5-4---|
E|-0-----0-----5-4-2-4-5-4---|
   .     .     . . . . . .

Repeat Verse 1:

Last Chord:
e|-3~---|
B|-2~---|
G|-0~---|
D|------|
A|------|
E|------|

End...


Will You Ever Learn Lyrics:

Verse 1:
So what's the point in all of this
When you will never change
The days have pass, The weather's changed
Should I be sorry Could I be sorry

Refrain:
I did it all, all for you
Hoping you would see
Your eyes are dull, your hands are clenched
Are we ready? Are we ready?

Pre-Chorus:
But you, you think about yourself
Only bu yourself
But what about...

Chorus 1:
Un-lonely nights
Romantic moments
The love, the love
What about them?
Throw it all away

Verse 2:
You know me well, You know it's wrong
Then what is it you feel?
You hide behind those perfect smiles
It won't fool me, cause you already did

Repeat Refrain,Pre-Chorus and Chorus:

Chorus 2:
The perfect dates
The sweetest kisses
The love, the love
What about them?
Throw it all away

Repeat Verse 1:





Comments


Popular Typecast tabs & chords
Another Minute Until Ten Bass Tabs
Ifatuation Is Always There Bass Tabs
Phoenix 2 Bass Tabs
Bright Eyes Chords
21 And Counting 1 Tabs
Bad News Brown 2 Tabs
Better Tabs
Holiday Tabs
Infatuation Is Always There Tabs
When The Sky Starts Falling Ukulele


Song lyrics



↑ Back to top | Tablatures and chords are parodies/interpretations of the original songs. You may use it for private study, scholarship, research or language learning purposes only
© 2014 AZChords.com Contact us | Privacy policy | DMCA | Add/correct tabs | Request tabs | Top 50 tabs