>
 >
Super 4

Super 4 Bass Tabs

Tyler Ward - Super 4 chords, tabs, tablatures, lyrics

Guitar lessons | Add/correct | Request | Top 50 tabs Artists:  A B C D E F G H I J K L M N O P Q R S T U V W X Y Z 0-9

Super 4 Bass Tabs – Tyler Ward

CD, Sheet music, Poster

Do you like Super 4? Share with your friends now
Bass TabsBass Tabs v2Bass Tabs v3Bass Tabs v4Bass Tabs v5
Super bass- Tyler Ward (Nicki Minaj cover)
tuning:E A D G B E (Standard)
capo 4th fret

Intro/verse 1:
e|--------------3~-----|----------|
B|--------------3~-----|----------|
G|--------------0~-----|----------|   (single strum)
D|--------------0~-----|----------|
A|--------------2~-----|----------|
E|--------------3~-----|----------|
Girl you got my heartbeat runniní away

e|-3-------------3~-----|----------|
B|-3-------------3~-----|----------|
G|-0-------------0~-----|----------|
D|-0-------------x------|----------|
A|-2-------------3~-----|----------|
E|-3-------------x------|----------|
Beating like a drum and itís coming your way

e|-3-------------x---------------|
B|-3-------------x---------------|
G|-0-------------x---------------|
D|-x-------------x---------------|
A|-3-------------x---------------|
E|-x-------------x---------------|
Cant you hear that boom, badoom, boom, boom, badoom, boom, bass
super bass

e|-------------------------------------------------3-----|
B|-------------------------------------------------3-----|
G|-------------------------------------------------0-----|  (palm mute)
D|-------------------------------------------------0-----|
A|-------------------------------------------------2-----|
E|-------------------------------------------------3-----|
boom, badoom, boom, boom, badoom, boom, baby, super bass

verse 2:
e|----3--------------|------------------|
B|----3--------------|------------------|
G|----0--------------|------------------|
D|----0--------------|------------------|
A|----x--------------|------------------|
E|----3--------------|------------------|
This one is for the girls with the booming system
Top down, AC with the cooler system

e|----3--------------|------------------|
B|----3--------------|------------------|
G|----0--------------|------------------|
D|----x--------------|------------------|
A|----3--------------|------------------|
E|----x--------------|------------------|
When she come up in the club, she be blazin up
Got stacks on deck like she savin up

e|----3--------------|------------------|
B|----3--------------|------------------|
G|----0--------------|------------------|
D|----2--------------|------------------|
A|----2--------------|------------------|
E|----x--------------|------------------|
And she ill, she real, she might gotta deal
She pop bottles and she got the right kind of bill

e|----3--------------|------------------|
B|----3--------------|------------------|
G|----0--------------|------------------|
D|----x--------------|------------------|
A|----3--------------|------------------|
E|----x--------------|------------------|
She cold, she dope, she might drink coke
She always in the air, but she never fly coach

e|----3--------------|------------------|
B|----3--------------|------------------|
G|----0--------------|------------------|
D|----0--------------|------------------|
A|----x--------------|------------------|
E|----3--------------|------------------|
She a muthalovin trip, trip, sailor of the ship, ship
When she make it drip, drip kiss her on the lip, lip

e|----3--------------|------------------|
B|----3--------------|------------------|
G|----0--------------|------------------|
D|----x--------------|------------------|
A|----3--------------|------------------|
E|----x--------------|------------------|
Thats the kind of girl I was lookin for
And yes youll get slapped if youre lookin bro

e|----3--------------|------------------|
B|----3--------------|------------------|
G|----0--------------|------------------|
D|----2--------------|------------------|
A|----2--------------|------------------|
E|----x--------------|------------------|
I said, excuse me youre like one of a kind
I mean my, my, my, my youre like pelican fly

e|----3--------------|------------------|
B|----3--------------|------------------|
G|----0--------------|------------------|
D|----x--------------|------------------|
A|----3--------------|------------------|
E|----x--------------|------------------|
I mean, youre so shy and Im loving your tie
Im like slicker than a guy with the thing on his eye, yea


e|----3--------------|------------------|
B|----3--------------|------------------|
G|----0--------------|------------------|
D|----0--------------|------------------|
A|----x--------------|------------------|
E|----3--------------|------------------|
Yes I did, yes I did, somebody please tell him who the F I is

e|----3--------------|------------------|
B|----3--------------|------------------|
G|----0--------------|------------------|
D|----x--------------|------------------|
A|----3--------------|------------------|
E|----x--------------|------------------|
the double P I C i drank the juice up laced the shoes up and chucked the juice up!

chorus:
e|--3-----------3--------------|------------------|
B|--3-----------3--------------|------------------|
G|--0-----------0--------------|------------------|
D|--x-----------0--------------|------------------|
A|--3-----------x--------------|------------------|
E|--x-----------3--------------|------------------|
Girl you got my heartbeat runnin away

e|--3-----------3--------------|------------------|
B|--3-----------3--------------|------------------|
G|--0-----------0--------------|------------------|
D|--0-----------x--------------|------------------|
A|--x-----------3--------------|------------------|
E|--3-----------x--------------|------------------|
Beating like a drum and its coming your way

e|--3-----------3--------------|------------------|
B|--3-----------3--------------|------------------|
G|--0-----------0--------------|------------------|
D|--x-----------2--------------|------------------|
A|--3-----------2--------------|------------------|
E|--x-----------x--------------|------------------|
Cant you hear that boom, badoom, boom, boom, badoom, boom, baby
super bass

e|--3-----------3--------------|------------------|
B|--3-----------3--------------|------------------|
G|--0-----------0--------------|------------------|
D|--2-----------x--------------|------------------|
A|--2-----------3--------------|------------------|
E|--x-----------x--------------|------------------|
boom, badoom, boom, boom, badoom, boom, baby super bass

e|--3-----------3--------------|----3--------------|
B|--3-----------3--------------|----3--------------|
G|--0-----------0--------------|----0--------------|
D|--0-----------0--------------|----0--------------|
A|--x-----------x--------------|----x--------------|
E|--3-----------3--------------|----3--------------|
Boom, boom, boom, baboom, boom, boom, boom, boom, boom, boom, boom baboom, boom, boom, boom

e|--3----------------|------------------|
B|--3----------------|------------------|
G|--0----------------|------------------|
D|--0----------------|------------------|
A|--x----------------|------------------|
E|--3----------------|------------------|
boom, badoom, boom, boom, badoom, boom, baby super bass

e|----3--------------|------------------|
B|----3--------------|------------------|
G|----0--------------|------------------|
D|----x--------------|------------------|
A|----3--------------|------------------|
E|----x--------------|------------------|
boom, badoom, boom, boom, badoom, boom, baby super bass

verse 3:
e|----3--------------|------------------|
B|----3--------------|------------------|
G|----0--------------|------------------|
D|----0--------------|------------------|
A|----x--------------|------------------|
E|----3--------------|------------------|
This one is for the boys in the polos
Entrepeneur newer players and them moguls

e|----3--------------|------------------|
B|----3--------------|------------------|
G|----0--------------|------------------|
D|----x--------------|------------------|
A|----3--------------|------------------|
E|----x--------------|------------------|
He could ball with the crew, he could solo
But I think I like him better when he dolo

e|----3--------------|------------------|
B|----3--------------|------------------|
G|----0--------------|------------------|
D|----2--------------|------------------|
A|----2--------------|------------------|
E|----x--------------|------------------|
And I think I like him better with the fitted cap on
He aint even gotta try to put the mac on


e|----3--------------|------------------|
B|----3--------------|------------------|
G|----0--------------|------------------|
D|----x--------------|------------------|
A|----3--------------|------------------|
E|----x--------------|------------------|
He just gotta give me that look, when he give me that look
Then the shades comin off, off, uh


e|----3--------------|------------------|
B|----3--------------|------------------|
G|----0--------------|------------------|
D|----0--------------|------------------|
A|----x--------------|------------------|
E|----3--------------|------------------|
Excuse me, youre a hell of a guy you know I really got a thing for American guys

e|----3--------------|------------------|
B|----3--------------|------------------|
G|----0--------------|------------------|
D|----x--------------|------------------|
A|----3--------------|------------------|
E|----x--------------|------------------|
I mean, sigh, sickenin eyes I can tell that youre in touch with your feminine side

e|----3--------------|------------------|
B|----3--------------|------------------|
G|----0--------------|------------------|
D|----2--------------|------------------|
A|----2--------------|------------------|
E|----x--------------|------------------|
Yes I did, yes I did, somebody please tell him who the f I is



e|----3--------------|------------------|
B|----3--------------|------------------|
G|----0--------------|------------------|
D|----x--------------|------------------|
A|----3--------------|------------------|
E|----x--------------|------------------|
Im your sister Alex G, I mack them dudes up, back coupes up, and chuck the deuce up

chorus:
e|--3-----------3--------------|------------------|
B|--3-----------3--------------|------------------|
G|--0-----------0--------------|------------------|
D|--x-----------0--------------|------------------|
A|--3-----------x--------------|------------------|
E|--x-----------3--------------|------------------|
Girl you got my heartbeat runnin away

e|--3-----------3--------------|------------------|
B|--3-----------3--------------|------------------|
G|--0-----------0--------------|------------------|
D|--0-----------x--------------|------------------|
A|--x-----------3--------------|------------------|
E|--3-----------x--------------|------------------|
Beating like a drum and its coming your way

e|--3-----------3--------------|------------------|
B|--3-----------3--------------|------------------|
G|--0-----------0--------------|------------------|
D|--x-----------2--------------|------------------|
A|--3-----------2--------------|------------------|
E|--x-----------x--------------|------------------|
Cant you hear that boom, badoom, boom, boom, badoom, boom, baby
super bass

e|--3-----------3--------------|------------------|
B|--3-----------3--------------|------------------|
G|--0-----------0--------------|------------------|
D|--2-----------x--------------|------------------|
A|--2-----------3--------------|------------------|
E|--x-----------x--------------|------------------|
boom, badoom, boom, boom, badoom, boom, baby super bass

e|--3-------------------------|------------------|
B|--3-------------------------|------------------|
G|--0-------------------------|------------------|
D|--0-------------------------|------------------|   end on a G
A|--2-------------------------|------------------|
E|--3-------------------------|------------------|





Comments


Popular Tyler Ward tabs & chords
Baby Chords
Everything Chords
Facebook Lover Chords
Is Anybody Out There Chords
Teenage Dream Chords
Tonight Tonight - Hot Chelle Rae Chords
Is Anybody Out There Ukulele
Sunset Dreaming Ukulele
Tyler Swift Ukulele
You Will Never Be Ukulele


Song lyrics



↑ Back to top | Tablatures and chords are parodies/interpretations of the original songs. You may use it for private study, scholarship, research or language learning purposes only
© 2014 AZChords.com Contact us | Privacy policy | DMCA | Add/correct tabs | Request tabs | Top 50 tabs