>
 >
Skyscraper

Skyscraper Guitar Tabs

Tyler Ward - Skyscraper chords, tabs, tablatures, lyrics

Guitar lessons | Add/correct | Request | Top 50 tabs Artists:  A B C D E F G H I J K L M N O P Q R S T U V W X Y Z 0-9

Skyscraper Guitar Tabs – Tyler Ward

CD, Sheet music, Poster

Do you like Skyscraper? Share with your friends now
ChordsTabsUkulele
Tyler Ward - Skyscraper (acoustic cover) ( asn.Debbie)

Standard Tuning + No Capo

Chords Used: G     : 320033
             Cadd9 : x32033
             Em7   : 022033
             D/F#  : 200233   ( D : xx0232)

*Note: It's actually the same as Demi's version, 
       but Tyler plucks the strings =]
       I hope you like it .. Please rate & comment.

[Verse 1]

   G          | Cadd9    | Em7       | D/F#
e|----------------------------------------------|
B|-------3-----------3-----------3----------3---|
G|-----0----0------0----0------0---0------2---0-|
D|---0-----------2-----------2----------0-------|
A|-------------3-----------2--------------------|
E|-3----------------------------------2---------|  x3

Skies are crying,
I am watching,
Catching teardrops in my hands.
Only silence, as it's ending,
Like we never had a chance.

[Pre Chorus 1]

    Em7       | Cadd9    | G         | D/F#
e|----------------------------------------------|
B|-------3-----------3-----------3----------3---|
G|-----0----0------0----0------0---0------2---0-|
D|---2-----------2-----------0----------0-------|
A|-2-----------3--------------------------------|
E|-------------------------3----------2---------|

Do you have to make me feel
Like there's nothing left of me?

~[Chorus]~

   G          | Cadd9    | Em7       | D/F#
e|----------------------------------------------|
B|-------3-----------3-----------3----------3---|
G|-----0----0------0----0------0---0------2---0-|
D|---0-----------2-----------2----------0-------|
A|-------------3-----------2--------------------|
E|-3----------------------------------2---------|  x4

You can take everything I have,
You can break everything I am,
Like I'm made of glass,
Like I'm made of paper.
Go on and try to tear me down.
I will be rising from the ground,
Like a skyscraper,
Like a skyscraper.

[Verse 2]

   G          | Cadd9    | Em7       | D/F#
e|----------------------------------------------|
B|-------3-----------3-----------3----------3---|
G|-----0----0------0----0------0---0------2---0-|
D|---0-----------2-----------2----------0-------|
A|-------------3-----------2--------------------|
E|-3----------------------------------2---------|

As the smoke clears,
I awaken,
And untangle you from me.
Would it make you feel better
To watch me, while I bleed?

[Pre Chorus 2]

    Em7       | Cadd9    | G         | D/F#
e|----------------------------------------------|
B|-------3-----------3-----------3----------3---|
G|-----0----0------0----0------0---0------2---0-|
D|---2-----------2-----------0----------0-------|
A|-2-----------3--------------------------------|
E|-------------------------3----------2---------|

All my windows are still broken,
But I'm standing on my feet.

~[Chorus]~

[Bridge]

    Am      | Cadd9  | G      | D
e|---------------------------------2---|
B|-----1---------3--------3----------3-|
G|-------2---------0--------0----2-----|
D|---2---------2--------0------0-------|
A|-0---------3-------------------------|
E|--------------------3----------------|  x2

Go run, run, run.
I'm gonna stay right here,
Watch you disappear.

Go run, run, run.
Yeah, it's a long way down,
But I am closer to the clouds,
Up here.

~[Chorus]~

( asn.Debbie)





Comments


Popular Tyler Ward tabs & chords
Airliner 1 Chords
Facebook Lover Chords
Falling 2 Chords
Our Storys Told Chords
Some Kind Of Beautiful 1 Chords
Never Say Never Ukulele
The Hardest Thing Ukulele
The Story Of Us Ukulele
The Way We Are Ukulele
Tyler Swift Ukulele


Song lyrics



↑ Back to top | Tablatures and chords are parodies/interpretations of the original songs. You may use it for private study, scholarship, research or language learning purposes only
© 2014 AZChords.com Contact us | Privacy policy | DMCA | Add/correct tabs | Request tabs | Top 50 tabs