» » »

Party Rock Anthem Tabs (ver.1)

Artists:  A B C D E F G H I J K L M N O P Q R S T U V W X Y Z # 

Party Rock Anthem Tabs (ver.1)

Tyler Ward
Rating:
0/5 (0 votes)

Hard to play? Try these video lessons and learn fast.
                

Tuning: Standard

Intro (Clean)

e|-------------------------------------------|
B|-------------------------------------------|
G|------5~----8~---6~------------------------|
D|----3-3~----8~---6~------------------------|
A|------------6~---4~------------------------|
E|--1----------------------------------------|

Pre-Verse/Verse (Very Slight Distortion)

e|----------------------------------------------|
B|----------------------------------------------|
G|----------------------------------------------|
D|------6-----6---6------6--------6-------------|
A|--8-8---8-8---8----6-6---6--4-4---4-----------|
E|----------------------------------------------|

Verse (Delay)

e|-----------------------------------|
B|-----------------------------------|
G|-----------------------------------|
D|--6------6------6------------------|
A|--8------6------4------------------|
E|-----------------------------------|

Chorus (Distortion)

e|-----------------------------------|
B|-----------------------------------|
G|---------8-------6-----------------|
D|--3------X-------X-----------------|
A|--3------6-------4-----------------|
E|--1--------------------------------|

Thats all there is really throughout the whole song. All the rest is just synth 
and some electronics

Song Order:

Intro
Pre-Verse x2
Chorus x4
Verse x4
Pre-Verse x8
Chorus x8 (first 4 times is just a variation in strumming)
Verse x4
Chorus x8
            
Hard to play? Try these video lessons and learn fast. | Correct




comments powered by Disqus
↑ Back to top | Tablatures and chords are parodies/interpretations of the original songs. You may use it for private study, scholarship, research or language learning purposes only